  0
SECTION
  2
HEADER
  9
$ACADVER
  1
AC1012
  9
$DWGCODEPAGE
  3
dos932
  9
$INSBASE
 10
0.0
 20
0.0
 30
0.0
  9
$EXTMIN
 10
-217.0
 20
-148.5
 30
0.0
  9
$EXTMAX
 10
202.0
 20
133.5
 30
0.0
  9
$LIMMIN
 10
-217.0
 20
-148.5
  9
$LIMMAX
 10
202.0
 20
133.5
  9
$ORTHOMODE
 70
     0
  9
$REGENMODE
 70
     1
  9
$FILLMODE
 70
     1
  9
$QTEXTMODE
 70
     0
  9
$MIRRTEXT
 70
     1
  9
$DRAGMODE
 70
     2
  9
$LTSCALE
 40
1.0
  9
$OSMODE
 70
     0
  9
$ATTMODE
 70
     1
  9
$TEXTSIZE
 40
3.0
  9
$TRACEWID
 40
0.05
  9
$TEXTSTYLE
  7
MX_NOTE_STANDARD
  9
$CLAYER
  8
DEFPOINTS
  9
$CELTYPE
  6
CONTINUOUS
  9
$CECOLOR
 62
   256
  9
$CELTSCALE
 40
1.0
  9
$DELOBJ
 70
     1
  9
$DISPSILH
 70
     0
  9
$DIMSCALE
 40
1.0
  9
$DIMASZ
 40
2.5
  9
$DIMEXO
 40
1.0
  9
$DIMDLI
 40
3.75
  9
$DIMRND
 40
0.0
  9
$DIMDLE
 40
0.0
  9
$DIMEXE
 40
2.28
  9
$DIMTP
 40
0.0
  9
$DIMTM
 40
0.0
  9
$DIMTXT
 40
3.0
  9
$DIMCEN
 40
2.5
  9
$DIMTSZ
 40
0.0
  9
$DIMTOL
 70
     0
  9
$DIMLIM
 70
     0
  9
$DIMTIH
 70
     0
  9
$DIMTOH
 70
     0
  9
$DIMSE1
 70
     0
  9
$DIMSE2
 70
     0
  9
$DIMTAD
 70
     1
  9
$DIMZIN
 70
     8
  9
$DIMBLK
  1

  9
$DIMASO
 70
     1
  9
$DIMSHO
 70
     1
  9
$DIMPOST
  1

  9
$DIMAPOST
  1

  9
$DIMALT
 70
     0
  9
$DIMALTD
 70
     4
  9
$DIMALTF
 40
0.03937
  9
$DIMLFAC
 40
1.0
  9
$DIMTOFL
 70
     1
  9
$DIMTVP
 40
0.0
  9
$DIMTIX
 70
     0
  9
$DIMSOXD
 70
     0
  9
$DIMSAH
 70
     1
  9
$DIMBLK1
  1
_OPEN30
  9
$DIMBLK2
  1
_OPEN30
  9
$DIMSTYLE
  2
MXDIMSTYLE
  9
$DIMCLRD
 70
     0
  9
$DIMCLRE
 70
     0
  9
$DIMCLRT
 70
     0
  9
$DIMTFAC
 40
1.0
  9
$DIMGAP
 40
1.0
  9
$DIMJUST
 70
     0
  9
$DIMSD1
 70
     0
  9
$DIMSD2
 70
     0
  9
$DIMTOLJ
 70
     0
  9
$DIMTZIN
 70
     0
  9
$DIMALTZ
 70
     0
  9
$DIMALTTZ
 70
     0
  9
$DIMFIT
 70
     3
  9
$DIMUPT
 70
     0
  9
$DIMUNIT
 70
     2
  9
$DIMDEC
 70
     2
  9
$DIMTDEC
 70
     2
  9
$DIMALTU
 70
     2
  9
$DIMALTTD
 70
     4
  9
$DIMTXSTY
  7
MX_NOTE_STANDARD
  9
$DIMAUNIT
 70
     0
  9
$LUNITS
 70
     2
  9
$LUPREC
 70
     4
  9
$SKETCHINC
 40
0.1
  9
$FILLETRAD
 40
0.0
  9
$AUNITS
 70
     0
  9
$AUPREC
 70
     0
  9
$MENU
  1
acad
  9
$ELEVATION
 40
0.0
  9
$PELEVATION
 40
0.0
  9
$THICKNESS
 40
0.0
  9
$LIMCHECK
 70
     0
  9
$BLIPMODE
 70
     1
  9
$CHAMFERA
 40
0.0
  9
$CHAMFERB
 40
0.0
  9
$CHAMFERC
 40
0.0
  9
$CHAMFERD
 40
0.0
  9
$SKPOLY
 70
     0
  9
$TDCREATE
 40
2459346.603831018
  9
$TDUPDATE
 40
2459346.603831018
  9
$TDINDWG
 40
0.0000000000
  9
$TDUSRTIMER
 40
0.0000000000
  9
$USRTIMER
 70
     1
  9
$ANGBASE
 50
0.0
  9
$ANGDIR
 70
     0
  9
$PDMODE
 70
     0
  9
$PDSIZE
 40
0.0
  9
$PLINEWID
 40
0.0
  9
$COORDS
 70
     1
  9
$SPLFRAME
 70
     0
  9
$SPLINETYPE
 70
     6
  9
$SPLINESEGS
 70
     8
  9
$ATTDIA
 70
     0
  9
$ATTREQ
 70
     1
  9
$HANDLING
 70
     1
  9
$HANDSEED
  5
853
  9
$SURFTAB1
 70
     6
  9
$SURFTAB2
 70
     6
  9
$SURFTYPE
 70
     6
  9
$SURFU
 70
     6
  9
$SURFV
 70
     6
  9
$UCSNAME
  2

  9
$UCSORG
 10
0.0
 20
0.0
 30
0.0
  9
$UCSXDIR
 10
1.0
 20
0.0
 30
0.0
  9
$UCSYDIR
 10
0.0
 20
1.0
 30
0.0
  9
$PUCSNAME
  2

  9
$PUCSORG
 10
0.0
 20
0.0
 30
0.0
  9
$PUCSXDIR
 10
1.0
 20
0.0
 30
0.0
  9
$PUCSYDIR
 10
0.0
 20
1.0
 30
0.0
  9
$USERI1
 70
     0
  9
$USERI2
 70
     0
  9
$USERI3
 70
     0
  9
$USERI4
 70
     0
  9
$USERI5
 70
     0
  9
$USERR1
 40
0.0
  9
$USERR2
 40
0.0
  9
$USERR3
 40
0.0
  9
$USERR4
 40
0.0
  9
$USERR5
 40
0.0
  9
$WORLDVIEW
 70
     1
  9
$SHADEDGE
 70
     3
  9
$SHADEDIF
 70
    70
  9
$TILEMODE
 70
     1
  9
$MAXACTVP
 70
    16
  9
$PINSBASE
 10
0.0
 20
0.0
 30
0.0
  9
$PLIMCHECK
 70
     0
  9
$PEXTMIN
 10
1.000000E+20
 20
1.000000E+20
 30
1.000000E+20
  9
$PEXTMAX
 10
-1.000000E+20
 20
-1.000000E+20
 30
-1.000000E+20
  9
$PLIMMIN
 10
0.0
 20
0.0
  9
$PLIMMAX
 10
12.0
 20
9.0
  9
$UNITMODE
 70
     0
  9
$VISRETAIN
 70
     0
  9
$PLINEGEN
 70
     1
  9
$PSLTSCALE
 70
     0
  9
$TREEDEPTH
 70
  3020
  9
$PICKSTYLE
 70
     1
  9
$CMLSTYLE
  2
Standard
  9
$CMLJUST
 70
     0
  9
$CMLSCALE
 40
1.0
  9
$SAVEIMAGES
 70
     0
  0
ENDSEC
  0
SECTION
  2
CLASSES
  0
CLASS
  1
LWPOLYLINE
  2
AcDbPolyline
  3
"AutoCAD"
 90
    32768
280
     0
281
     1
  0
CLASS
  1
IMAGE
  2
AcDbRasterImage
  3
ISM
 90
    32895
280
     0
281
     1
  0
CLASS
  1
OLE2FRAME
  2
AcDbOle2Frame
  3
""
 90
    32768
280
     0
281
     1
  0
CLASS
  1
HATCH
  2
AcDbHatch
  3
"ACAD_SEDONA"
 90
    32768
280
     0
281
     1
  0
CLASS
  1
DICTIONARYVAR
  2
AcDbDictionaryVar
  3
"AutoCAD"
 90
    32768
280
     0
281
     0
  0
CLASS
  1
RASTERVARIABLES
  2
AcDbRasterVariables
  3
ISM
 90
    32768
280
     0
281
     0
  0
CLASS
  1
IMAGEDEF
  2
AcDbRasterImageDef
  3
ISM
 90
    32768
280
     0
281
     0
  0
CLASS
  1
IMAGEDEF_REACTOR
  2
AcDbRasterImageDefReactor
  3
ISM
 90
    32769
280
     0
281
     0
  0
CLASS
  1
IDBUFFER
  2
AcDbIdBuffer
  3
"Acad"
 90
    32768
280
     0
281
     0
  0
CLASS
  1
SPATIAL_FILTER
  2
AcDbSpatialFilter
  3
"Acad"
 90
    32768
280
     0
281
     0
  0
CLASS
  1
XRECORD
  2
AcDbXrecord
  3
"<Built In>"
 90
    32768
280
     0
281
     0
  0
CLASS
  1
SORTENTSTABLE
  2
AcDbSortentsTable
  3
"AutoCAD"
 90
    32768
280
     0
281
     0
  0
CLASS
  1
LAYER_INDEX
  2
AcDbLayerIndex
  3
"Acad"
 90
    32768
280
     0
281
     0
  0
CLASS
  1
SPATIAL_INDEX
  2
AcDbSpatialIndex
  3
"Acad"
 90
    32768
280
     0
281
     0
  0
CLASS
  1
OBJECT_PTR
  2
CAseDLPNTableRecord
  3
"ASE-LPNTableRecord"
 90
    32769
280
     0
281
     0
  0
CLASS
  1
LAYOUT
  2
AcDbLayout
  3
"AutoCAD 2000"
 90
    32768
280
     0
281
     0
  0
CLASS
  1
PLOTSETTINGS
  2
AcDbPlotSettings
  3
"AutoCAD 2000"
 90
    32768
280
     0
281
     0
  0
CLASS
  1
ACDBDICTIONARYWDFLT
  2
AcDbDictionaryWithDefault
  3
"AutoCAD 2000"
 90
    32768
280
     0
281
     0
  0
CLASS
  1
ACDBPLACEHOLDER
  2
AcDbPlaceHolder
  3
"AutoCAD 2000"
 90
    32768
280
     0
281
     0
  0
ENDSEC
  0
SECTION
  2
TABLES
  0
TABLE
  2
VPORT
  5
7
100
AcDbSymbolTable
 70
     1
  0
VPORT
  5
15
100
AcDbSymbolTableRecord
100
AcDbViewportTableRecord
  2
*ACTIVE
 70
     0
 10
0.0
 20
0.0
 11
1.0
 21
1.0
 12
-7.5
 22
-7.5
 13
0.0
 23
0.0
 14
1.0
 24
1.0
 15
0.0
 25
0.0
 16
0.0
 26
0.0
 36
1.0
 17
0.0
 27
0.0
 37
0.0
 40
284.82
 41
1.732051
 42
50.0
 43
0.0
 44
0.0
 50
0.0
 51
0.0
 71
     0
 72
   100
 73
     1
 74
     1
 75
     0
 76
     0
 77
     0
 78
     0
  0
ENDTAB
  0
TABLE
  2
LTYPE
  5
4
100
AcDbSymbolTable
 70
     4
  0
LTYPE
  5
11
100
AcDbSymbolTableRecord
100
AcDbLinetypeTableRecord
  2
BYBLOCK
 70
    64
  3

 72
    65
 73
     0
 40
0.0
  0
LTYPE
  5
12
100
AcDbSymbolTableRecord
100
AcDbLinetypeTableRecord
  2
BYLAYER
 70
    64
  3

 72
    65
 73
     0
 40
0.0
  0
LTYPE
  5
13
100
AcDbSymbolTableRecord
100
AcDbLinetypeTableRecord
  2
CONTINUOUS
 70
    64
  3
Solid line
 72
    65
 73
     0
 40
0.0
  0
LTYPE
  5
58
100
AcDbSymbolTableRecord
100
AcDbLinetypeTableRecord
  2
CENTER
 70
    64
  3
Center ____ _ ____ _ ____ _ ____ _ ____ _ ____
 72
    65
 73
     4
 40
50.8
 49
31.75
 74
     0
 49
-6.35
 74
     0
 49
6.35
 74
     0
 49
-6.35
 74
     0
  0
ENDTAB
  0
TABLE
  2
LAYER
  5
2
100
AcDbSymbolTable
 70
     6
  0
LAYER
  5
14
100
AcDbSymbolTableRecord
100
AcDbLayerTableRecord
  2
0
 70
     0
 62
     7
  6
CONTINUOUS
  0
LAYER
  5
1D
100
AcDbSymbolTableRecord
100
AcDbLayerTableRecord
  2
DEFPOINTS
 70
     0
 62
     7
  6
CONTINUOUS
  0
LAYER
  5
1E
100
AcDbSymbolTableRecord
100
AcDbLayerTableRecord
  2
CLASS1
 70
     0
 62
     7
  6
CONTINUOUS
  0
LAYER
  5
1F
100
AcDbSymbolTableRecord
100
AcDbLayerTableRecord
  2
GV
 70
     0
 62
     7
  6
CONTINUOUS
  0
LAYER
  5
20
100
AcDbSymbolTableRecord
100
AcDbLayerTableRecord
  2
TV
 70
     0
 62
     7
  6
CONTINUOUS
  0
LAYER
  5
21
100
AcDbSymbolTableRecord
100
AcDbLayerTableRecord
  2
VV
 70
     0
 62
     7
  6
CONTINUOUS
  0
ENDTAB
  0
TABLE
  2
STYLE
  5
3
100
AcDbSymbolTable
 70
     3
  0
STYLE
  5
17
100
AcDbSymbolTableRecord
100
AcDbTextStyleTableRecord
  2
MX_NOTE_STANDARD
 70
     0
 40
0.0
 41
1.0
 50
0.0
 71
     0
 42
3.0
  3
txt.shx
  4
extfont.shx
  0
STYLE
  5
77A
100
AcDbSymbolTableRecord
100
AcDbTextStyleTableRecord
  2
MX_DIMTXSTY_2
 70
     0
 40
0.0
 41
1.2
 50
0.0
 71
     0
 42
3.0
  3
txt.shx
  4
extfont.shx
  0
STYLE
  5
7B1
100
AcDbSymbolTableRecord
100
AcDbTextStyleTableRecord
  2
MX_DIMTXSTY_3
 70
     0
 40
0.0
 41
1.1
 50
0.0
 71
     0
 42
3.0
  3
txt.shx
  4
extfont.shx
  0
ENDTAB
  0
TABLE
  2
VIEW
  5
5
100
AcDbSymbolTable
 70
     0
  0
ENDTAB
  0
TABLE
  2
UCS
  5
6
100
AcDbSymbolTable
 70
     0
  0
ENDTAB
  0
TABLE
  2
APPID
  5
8
100
AcDbSymbolTable
 70
     1
  0
APPID
  5
16
100
AcDbSymbolTableRecord
100
AcDbRegAppTableRecord
  2
ACAD
 70
     0
  0
ENDTAB
  0
TABLE
  2
DIMSTYLE
  5
9
100
AcDbSymbolTable
 70
     1
  0
DIMSTYLE
105
18
100
AcDbSymbolTableRecord
100
AcDbDimStyleTableRecord
  2
MXDIMSTYLE
 70
     0
  3

  4

  5

  6
_OPEN30
  7
_OPEN30
 40
1.0
 41
2.5
 42
1.0
 43
3.75
 44
2.28
 45
0.0
 46
0.0
 47
0.0
 48
0.0
 71
     0
 72
     0
 73
     0
 74
     0
 75
     0
 76
     0
 77
     1
 78
     8
140
3.0
141
2.5
142
0.0
143
0.03937
144
1.0
145
0.0
146
1.0
147
1.0
170
     0
171
     4
172
     1
173
     1
174
     0
175
     0
176
     0
177
     0
178
     0
270
     2
271
     2
272
     2
273
     2
274
     4
275
     0
280
     0
281
     0
282
     0
283
     0
284
     0
285
     0
286
     0
287
     3
288
     0
340
17
  0
ENDTAB
  0
TABLE
  2
BLOCK_RECORD
  5
1
100
AcDbSymbolTable
 70
    15
  0
BLOCK_RECORD
  5
A
100
AcDbSymbolTableRecord
100
AcDbBlockTableRecord
  2
*MODEL_SPACE
  0
BLOCK_RECORD
  5
B
100
AcDbSymbolTableRecord
100
AcDbBlockTableRecord
  2
*PAPER_SPACE
  0
BLOCK_RECORD
  5
22
100
AcDbSymbolTableRecord
100
AcDbBlockTableRecord
  2
_OPEN30
  0
BLOCK_RECORD
  5
118
100
AcDbSymbolTableRecord
100
AcDbBlockTableRecord
  2
*X1
  0
BLOCK_RECORD
  5
2F5
100
AcDbSymbolTableRecord
100
AcDbBlockTableRecord
  2
*X2
  0
BLOCK_RECORD
  5
3B1
100
AcDbSymbolTableRecord
100
AcDbBlockTableRecord
  2
*X3
  0
BLOCK_RECORD
  5
41B
100
AcDbSymbolTableRecord
100
AcDbBlockTableRecord
  2
*X4
  0
BLOCK_RECORD
  5
4A3
100
AcDbSymbolTableRecord
100
AcDbBlockTableRecord
  2
*X5
  0
BLOCK_RECORD
  5
4F4
100
AcDbSymbolTableRecord
100
AcDbBlockTableRecord
  2
*X6
  0
BLOCK_RECORD
  5
58D
100
AcDbSymbolTableRecord
100
AcDbBlockTableRecord
  2
*X7
  0
BLOCK_RECORD
  5
5DA
100
AcDbSymbolTableRecord
100
AcDbBlockTableRecord
  2
*X8
  0
BLOCK_RECORD
  5
627
100
AcDbSymbolTableRecord
100
AcDbBlockTableRecord
  2
*X9
  0
BLOCK_RECORD
  5
654
100
AcDbSymbolTableRecord
100
AcDbBlockTableRecord
  2
*X10
  0
BLOCK_RECORD
  5
69C
100
AcDbSymbolTableRecord
100
AcDbBlockTableRecord
  2
*X11
  0
BLOCK_RECORD
  5
6D4
100
AcDbSymbolTableRecord
100
AcDbBlockTableRecord
  2
*X12
  0
BLOCK_RECORD
  5
701
100
AcDbSymbolTableRecord
100
AcDbBlockTableRecord
  2
*X13
  0
BLOCK_RECORD
  5
731
100
AcDbSymbolTableRecord
100
AcDbBlockTableRecord
  2
*X14
  0
ENDTAB
  0
ENDSEC
  0
SECTION
  2
BLOCKS
  0
BLOCK
  5
D
100
AcDbEntity
  8
0
100
AcDbBlockBegin
  2
*MODEL_SPACE
 70
     0
 10
0.0
 20
0.0
 30
0.0
  3
*MODEL_SPACE
  1

  0
ENDBLK
  5
E
100
AcDbEntity
  8
0
100
AcDbBlockEnd
  0
BLOCK
  5
F
100
AcDbEntity
 67
     1
  8
0
100
AcDbBlockBegin
  2
*PAPER_SPACE
 70
     0
 10
0.0
 20
0.0
 30
0.0
  3
*PAPER_SPACE
  1

  0
ENDBLK
  5
10
100
AcDbEntity
 67
     1
  8
0
100
AcDbBlockEnd
  0
BLOCK
  5
23
100
AcDbEntity
  8
0
  6
ByBlock
 62
     0
100
AcDbBlockBegin
  2
_OPEN30
 70
     2
 10
0.0
 20
0.0
 30
0.0
  3
_OPEN30
  1

  0
LINE
  5
24
100
AcDbEntity
  8
0
  6
ByBlock
 62
     0
100
AcDbLine
 10
-1.0
 20
0.267949
 30
0.0
 11
0.0
 21
0.0
 31
0.0
  0
LINE
  5
25
100
AcDbEntity
  8
0
  6
ByBlock
 62
     0
100
AcDbLine
 10
0.0
 20
0.0
 30
0.0
 11
-1.0
 21
-0.267949
 31
0.0
  0
LINE
  5
26
100
AcDbEntity
  8
0
  6
ByBlock
 62
     0
100
AcDbLine
 10
0.0
 20
0.0
 30
0.0
 11
-1.0
 21
0.0
 31
0.0
  0
ENDBLK
  5
27
100
AcDbEntity
  8
0
  6
ByBlock
 62
     0
100
AcDbBlockEnd
  0
BLOCK
  5
119
100
AcDbEntity
  8
0
  6
ByBlock
 62
     0
100
AcDbBlockBegin
  2
*X1
 70
     1
 10
0.0
 20
0.0
 30
0.0
  3
*X1
  1

  0
LINE
  5
11A
100
AcDbEntity
  8
0
  6
CONTINUOUS
 62
     0
100
AcDbLine
 10
126.663774
 20
-137.087056
 30
0.0
 11
126.710853
 21
-137.039977
 31
0.0
  0
LINE
  5
11B
100
AcDbEntity
  8
0
  6
CONTINUOUS
 62
     0
100
AcDbLine
 10
126.285022
 20
-137.324386
 30
0.0
 11
126.948183
 21
-136.661225
 31
0.0
  0
LINE
  5
11C
100
AcDbEntity
  8
0
  6
CONTINUOUS
 62
     0
100
AcDbLine
 10
126.088358
 20
-137.379628
 30
0.0
 11
127.003426
 21
-136.464561
 31
0.0
  0
LINE
  5
11D
100
AcDbEntity
  8
0
  6
CONTINUOUS
 62
     0
100
AcDbLine
 10
125.92862
 20
-137.397945
 30
0.0
 11
127.021742
 21
-136.304823
 31
0.0
  0
LINE
  5
11E
100
AcDbEntity
  8
0
  6
CONTINUOUS
 62
     0
100
AcDbLine
 10
125.789556
 20
-137.395588
 30
0.0
 11
127.019385
 21
-136.165759
 31
0.0
  0
LINE
  5
11F
100
AcDbEntity
  8
0
  6
CONTINUOUS
 62
     0
100
AcDbLine
 10
125.664797
 20
-137.378926
 30
0.0
 11
127.002723
 21
-136.040999
 31
0.0
  0
LINE
  5
120
100
AcDbEntity
  8
0
  6
CONTINUOUS
 62
     0
100
AcDbLine
 10
125.551078
 20
-137.351223
 30
0.0
 11
126.975021
 21
-135.927281
 31
0.0
  0
LINE
  5
121
100
AcDbEntity
  8
0
  6
CONTINUOUS
 62
     0
100
AcDbLine
 10
125.446487
 20
-137.314393
 30
0.0
 11
126.93819
 21
-135.82269
 31
0.0
  0
LINE
  5
122
100
AcDbEntity
  8
0
  6
CONTINUOUS
 62
     0
100
AcDbLine
 10
125.349821
 20
-137.269638
 30
0.0
 11
126.893435
 21
-135.726023
 31
0.0
  0
LINE
  5
123
100
AcDbEntity
  8
0
  6
CONTINUOUS
 62
     0
100
AcDbLine
 10
125.260299
 20
-137.217739
 30
0.0
 11
126.841536
 21
-135.636501
 31
0.0
  0
LINE
  5
124
100
AcDbEntity
  8
0
  6
CONTINUOUS
 62
     0
100
AcDbLine
 10
125.177418
 20
-137.159198
 30
0.0
 11
126.782995
 21
-135.553621
 31
0.0
  0
LINE
  5
125
100
AcDbEntity
  8
0
  6
CONTINUOUS
 62
     0
100
AcDbLine
 10
125.100879
 20
-137.094315
 30
0.0
 11
126.718113
 21
-135.477082
 31
0.0
  0
LINE
  5
126
100
AcDbEntity
  8
0
  6
CONTINUOUS
 62
     0
100
AcDbLine
 10
125.030545
 20
-137.023228
 30
0.0
 11
126.647026
 21
-135.406748
 31
0.0
  0
LINE
  5
127
100
AcDbEntity
  8
0
  6
CONTINUOUS
 62
     0
100
AcDbLine
 10
124.966424
 20
-136.945928
 30
0.0
 11
126.569725
 21
-135.342626
 31
0.0
  0
LINE
  5
128
100
AcDbEntity
  8
0
  6
CONTINUOUS
 62
     0
100
AcDbLine
 10
124.908672
 20
-136.862259
 30
0.0
 11
126.486056
 21
-135.284874
 31
0.0
  0
LINE
  5
129
100
AcDbEntity
  8
0
  6
CONTINUOUS
 62
     0
100
AcDbLine
 10
124.85761
 20
-136.771899
 30
0.0
 11
126.395696
 21
-135.233813
 31
0.0
  0
LINE
  5
12A
100
AcDbEntity
  8
0
  6
CONTINUOUS
 62
     0
100
AcDbLine
 10
124.813771
 20
-136.674317
 30
0.0
 11
126.298114
 21
-135.189974
 31
0.0
  0
LINE
  5
12B
100
AcDbEntity
  8
0
  6
CONTINUOUS
 62
     0
100
AcDbLine
 10
124.777976
 20
-136.56869
 30
0.0
 11
126.192487
 21
-135.154179
 31
0.0
  0
LINE
  5
12C
100
AcDbEntity
  8
0
  6
CONTINUOUS
 62
     0
100
AcDbLine
 10
124.751496
 20
-136.453748
 30
0.0
 11
126.077546
 21
-135.127699
 31
0.0
  0
LINE
  5
12D
100
AcDbEntity
  8
0
  6
CONTINUOUS
 62
     0
100
AcDbLine
 10
124.736362
 20
-136.327461
 30
0.0
 11
125.951259
 21
-135.112565
 31
0.0
  0
LINE
  5
12E
100
AcDbEntity
  8
0
  6
CONTINUOUS
 62
     0
100
AcDbLine
 10
124.736085
 20
-136.186317
 30
0.0
 11
125.810114
 21
-135.112288
 31
0.0
  0
LINE
  5
12F
100
AcDbEntity
  8
0
  6
CONTINUOUS
 62
     0
100
AcDbLine
 10
124.757669
 20
-136.023312
 30
0.0
 11
125.64711
 21
-135.133871
 31
0.0
  0
LINE
  5
130
100
AcDbEntity
  8
0
  6
CONTINUOUS
 62
     0
100
AcDbLine
 10
124.819961
 20
-135.819599
 30
0.0
 11
125.443396
 21
-135.196164
 31
0.0
  0
ENDBLK
  5
131
100
AcDbEntity
  8
0
  6
ByBlock
 62
     0
100
AcDbBlockEnd
  0
BLOCK
  5
2F6
100
AcDbEntity
  8
0
  6
ByBlock
 62
     0
100
AcDbBlockBegin
  2
*X2
 70
     1
 10
0.0
 20
0.0
 30
0.0
  3
*X2
  1

  0
LINE
  5
2F7
100
AcDbEntity
  8
0
  6
CONTINUOUS
 62
     0
100
AcDbLine
 10
132.592088
 20
-141.199658
 30
0.0
 11
132.925686
 21
-140.866059
 31
0.0
  0
LINE
  5
2F8
100
AcDbEntity
  8
0
  6
CONTINUOUS
 62
     0
100
AcDbLine
 10
132.227381
 20
-141.422943
 30
0.0
 11
133.148972
 21
-140.501353
 31
0.0
  0
LINE
  5
2F9
100
AcDbEntity
  8
0
  6
CONTINUOUS
 62
     0
100
AcDbLine
 10
131.995499
 20
-141.513404
 30
0.0
 11
133.239432
 21
-140.269471
 31
0.0
  0
LINE
  5
2FA
100
AcDbEntity
  8
0
  6
CONTINUOUS
 62
     0
100
AcDbLine
 10
131.804223
 20
-141.563258
 30
0.0
 11
133.289286
 21
-140.078195
 31
0.0
  0
LINE
  5
2FB
100
AcDbEntity
  8
0
  6
CONTINUOUS
 62
     0
100
AcDbLine
 10
131.635888
 20
-141.590173
 30
0.0
 11
133.316201
 21
-139.909859
 31
0.0
  0
LINE
  5
2FC
100
AcDbEntity
  8
0
  6
CONTINUOUS
 62
     0
100
AcDbLine
 10
131.483177
 20
-141.601462
 30
0.0
 11
133.32749
 21
-139.757148
 31
0.0
  0
LINE
  5
2FD
100
AcDbEntity
  8
0
  6
CONTINUOUS
 62
     0
100
AcDbLine
 10
131.34221
 20
-141.601008
 30
0.0
 11
133.327036
 21
-139.616182
 31
0.0
  0
LINE
  5
2FE
100
AcDbEntity
  8
0
  6
CONTINUOUS
 62
     0
100
AcDbLine
 10
131.210634
 20
-141.591162
 30
0.0
 11
133.31719
 21
-139.484606
 31
0.0
  0
LINE
  5
2FF
100
AcDbEntity
  8
0
  6
CONTINUOUS
 62
     0
100
AcDbLine
 10
131.086899
 20
-141.573475
 30
0.0
 11
133.299504
 21
-139.360871
 31
0.0
  0
LINE
  5
300
100
AcDbEntity
  8
0
  6
CONTINUOUS
 62
     0
100
AcDbLine
 10
130.969922
 20
-141.549031
 30
0.0
 11
133.27506
 21
-139.243894
 31
0.0
  0
LINE
  5
301
100
AcDbEntity
  8
0
  6
CONTINUOUS
 62
     0
100
AcDbLine
 10
130.858916
 20
-141.518616
 30
0.0
 11
133.244644
 21
-139.132888
 31
0.0
  0
LINE
  5
302
100
AcDbEntity
  8
0
  6
CONTINUOUS
 62
     0
100
AcDbLine
 10
130.753293
 20
-141.482818
 30
0.0
 11
133.208846
 21
-139.027265
 31
0.0
  0
LINE
  5
303
100
AcDbEntity
  8
0
  6
CONTINUOUS
 62
     0
100
AcDbLine
 10
130.652605
 20
-141.442085
 30
0.0
 11
131.686023
 21
-140.408666
 31
0.0
  0
LINE
  5
304
100
AcDbEntity
  8
0
  6
CONTINUOUS
 62
     0
100
AcDbLine
 10
132.134694
 20
-139.959995
 30
0.0
 11
133.168113
 21
-138.926576
 31
0.0
  0
LINE
  5
305
100
AcDbEntity
  8
0
  6
CONTINUOUS
 62
     0
100
AcDbLine
 10
130.556505
 20
-141.396763
 30
0.0
 11
131.500773
 21
-140.452495
 31
0.0
  0
LINE
  5
306
100
AcDbEntity
  8
0
  6
CONTINUOUS
 62
     0
100
AcDbLine
 10
132.178524
 20
-139.774744
 30
0.0
 11
133.122791
 21
-138.830477
 31
0.0
  0
LINE
  5
307
100
AcDbEntity
  8
0
  6
CONTINUOUS
 62
     0
100
AcDbLine
 10
130.464727
 20
-141.34712
 30
0.0
 11
131.35742
 21
-140.454427
 31
0.0
  0
LINE
  5
308
100
AcDbEntity
  8
0
  6
CONTINUOUS
 62
     0
100
AcDbLine
 10
132.180455
 20
-139.631391
 30
0.0
 11
133.073148
 21
-138.738698
 31
0.0
  0
LINE
  5
309
100
AcDbEntity
  8
0
  6
CONTINUOUS
 62
     0
100
AcDbLine
 10
130.377062
 20
-141.293363
 30
0.0
 11
131.23578
 21
-140.434646
 31
0.0
  0
LINE
  5
30A
100
AcDbEntity
  8
0
  6
CONTINUOUS
 62
     0
100
AcDbLine
 10
132.160674
 20
-139.509752
 30
0.0
 11
133.019391
 21
-138.651034
 31
0.0
  0
LINE
  5
30B
100
AcDbEntity
  8
0
  6
CONTINUOUS
 62
     0
100
AcDbLine
 10
130.293355
 20
-141.235649
 30
0.0
 11
131.129151
 21
-140.399853
 31
0.0
  0
LINE
  5
30C
100
AcDbEntity
  8
0
  6
CONTINUOUS
 62
     0
100
AcDbLine
 10
132.125881
 20
-139.403123
 30
0.0
 11
132.961677
 21
-138.567327
 31
0.0
  0
LINE
  5
30D
100
AcDbEntity
  8
0
  6
CONTINUOUS
 62
     0
100
AcDbLine
 10
130.21349
 20
-141.174093
 30
0.0
 11
131.034428
 21
-140.353154
 31
0.0
  0
LINE
  5
30E
100
AcDbEntity
  8
0
  6
CONTINUOUS
 62
     0
100
AcDbLine
 10
132.079182
 20
-139.3084
 30
0.0
 11
132.900121
 21
-138.487462
 31
0.0
  0
LINE
  5
30F
100
AcDbEntity
  8
0
  6
CONTINUOUS
 62
     0
100
AcDbLine
 10
130.137389
 20
-141.108772
 30
0.0
 11
130.950009
 21
-140.296152
 31
0.0
  0
LINE
  5
310
100
AcDbEntity
  8
0
  6
CONTINUOUS
 62
     0
100
AcDbLine
 10
132.022181
 20
-139.223981
 30
0.0
 11
132.8348
 21
-138.411361
 31
0.0
  0
LINE
  5
311
100
AcDbEntity
  8
0
  6
CONTINUOUS
 62
     0
100
AcDbLine
 10
130.065007
 20
-141.039733
 30
0.0
 11
130.875108
 21
-140.229632
 31
0.0
  0
LINE
  5
312
100
AcDbEntity
  8
0
  6
CONTINUOUS
 62
     0
100
AcDbLine
 10
131.95566
 20
-139.14908
 30
0.0
 11
132.765761
 21
-138.338979
 31
0.0
  0
LINE
  5
313
100
AcDbEntity
  8
0
  6
CONTINUOUS
 62
     0
100
AcDbLine
 10
129.996331
 20
-140.966988
 30
0.0
 11
130.809502
 21
-140.153817
 31
0.0
  0
LINE
  5
314
100
AcDbEntity
  8
0
  6
CONTINUOUS
 62
     0
100
AcDbLine
 10
131.879845
 20
-139.083474
 30
0.0
 11
132.693016
 21
-138.270303
 31
0.0
  0
LINE
  5
315
100
AcDbEntity
  8
0
  6
CONTINUOUS
 62
     0
100
AcDbLine
 10
129.931376
 20
-140.890521
 30
0.0
 11
130.753464
 21
-140.068433
 31
0.0
  0
LINE
  5
316
100
AcDbEntity
  8
0
  6
CONTINUOUS
 62
     0
100
AcDbLine
 10
131.794461
 20
-139.027436
 30
0.0
 11
132.616549
 21
-138.205348
 31
0.0
  0
LINE
  5
317
100
AcDbEntity
  8
0
  6
CONTINUOUS
 62
     0
100
AcDbLine
 10
129.870192
 20
-140.810284
 30
0.0
 11
130.707844
 21
-139.972632
 31
0.0
  0
LINE
  5
318
100
AcDbEntity
  8
0
  6
CONTINUOUS
 62
     0
100
AcDbLine
 10
131.69866
 20
-138.981816
 30
0.0
 11
132.536312
 21
-138.144164
 31
0.0
  0
LINE
  5
319
100
AcDbEntity
  8
0
  6
CONTINUOUS
 62
     0
100
AcDbLine
 10
129.81286
 20
-140.726194
 30
0.0
 11
130.67435
 21
-139.864705
 31
0.0
  0
LINE
  5
31A
100
AcDbEntity
  8
0
  6
CONTINUOUS
 62
     0
100
AcDbLine
 10
131.590733
 20
-138.948322
 30
0.0
 11
132.452223
 21
-138.086832
 31
0.0
  0
LINE
  5
31B
100
AcDbEntity
  8
0
  6
CONTINUOUS
 62
     0
100
AcDbLine
 10
129.759499
 20
-140.638135
 30
0.0
 11
130.656307
 21
-139.741327
 31
0.0
  0
LINE
  5
31C
100
AcDbEntity
  8
0
  6
CONTINUOUS
 62
     0
100
AcDbLine
 10
131.467355
 20
-138.930278
 30
0.0
 11
132.364163
 21
-138.03347
 31
0.0
  0
LINE
  5
31D
100
AcDbEntity
  8
0
  6
CONTINUOUS
 62
     0
100
AcDbLine
 10
129.710269
 20
-140.545943
 30
0.0
 11
130.661029
 21
-139.595183
 31
0.0
  0
LINE
  5
31E
100
AcDbEntity
  8
0
  6
CONTINUOUS
 62
     0
100
AcDbLine
 10
131.321211
 20
-138.935001
 30
0.0
 11
132.271971
 21
-137.984241
 31
0.0
  0
LINE
  5
31F
100
AcDbEntity
  8
0
  6
CONTINUOUS
 62
     0
100
AcDbLine
 10
128.511897
 20
-141.602894
 30
0.0
 11
128.590762
 21
-141.524029
 31
0.0
  0
LINE
  5
320
100
AcDbEntity
  8
0
  6
CONTINUOUS
 62
     0
100
AcDbLine
 10
129.665384
 20
-140.449407
 30
0.0
 11
130.711914
 21
-139.402877
 31
0.0
  0
LINE
  5
321
100
AcDbEntity
  8
0
  6
CONTINUOUS
 62
     0
100
AcDbLine
 10
131.128905
 20
-138.985886
 30
0.0
 11
132.175435
 21
-137.939355
 31
0.0
  0
LINE
  5
322
100
AcDbEntity
  8
0
  6
CONTINUOUS
 62
     0
100
AcDbLine
 10
128.370475
 20
-141.602894
 30
0.0
 11
128.590762
 21
-141.382607
 31
0.0
  0
LINE
  5
323
100
AcDbEntity
  8
0
  6
CONTINUOUS
 62
     0
100
AcDbLine
 10
129.625117
 20
-140.348252
 30
0.0
 11
132.07428
 21
-137.899089
 31
0.0
  0
LINE
  5
324
100
AcDbEntity
  8
0
  6
CONTINUOUS
 62
     0
100
AcDbLine
 10
128.229054
 20
-141.602894
 30
0.0
 11
128.590762
 21
-141.241186
 31
0.0
  0
LINE
  5
325
100
AcDbEntity
  8
0
  6
CONTINUOUS
 62
     0
100
AcDbLine
 10
129.589824
 20
-140.242123
 30
0.0
 11
131.968152
 21
-137.863796
 31
0.0
  0
LINE
  5
326
100
AcDbEntity
  8
0
  6
CONTINUOUS
 62
     0
100
AcDbLine
 10
128.087633
 20
-141.602894
 30
0.0
 11
128.590762
 21
-141.099765
 31
0.0
  0
LINE
  5
327
100
AcDbEntity
  8
0
  6
CONTINUOUS
 62
     0
100
AcDbLine
 10
129.559965
 20
-140.130561
 30
0.0
 11
131.856589
 21
-137.833937
 31
0.0
  0
LINE
  5
328
100
AcDbEntity
  8
0
  6
CONTINUOUS
 62
     0
100
AcDbLine
 10
127.946211
 20
-141.602894
 30
0.0
 11
128.590762
 21
-140.958343
 31
0.0
  0
LINE
  5
329
100
AcDbEntity
  8
0
  6
CONTINUOUS
 62
     0
100
AcDbLine
 10
129.536144
 20
-140.01296
 30
0.0
 11
131.738989
 21
-137.810116
 31
0.0
  0
LINE
  5
32A
100
AcDbEntity
  8
0
  6
CONTINUOUS
 62
     0
100
AcDbLine
 10
127.80479
 20
-141.602894
 30
0.0
 11
128.590762
 21
-140.816922
 31
0.0
  0
LINE
  5
32B
100
AcDbEntity
  8
0
  6
CONTINUOUS
 62
     0
100
AcDbLine
 10
129.519172
 20
-139.888511
 30
0.0
 11
131.614539
 21
-137.793144
 31
0.0
  0
LINE
  5
32C
100
AcDbEntity
  8
0
  6
CONTINUOUS
 62
     0
100
AcDbLine
 10
127.663369
 20
-141.602894
 30
0.0
 11
128.590762
 21
-140.675501
 31
0.0
  0
LINE
  5
32D
100
AcDbEntity
  8
0
  6
CONTINUOUS
 62
     0
100
AcDbLine
 10
129.510168
 20
-139.756094
 30
0.0
 11
131.482122
 21
-137.78414
 31
0.0
  0
LINE
  5
32E
100
AcDbEntity
  8
0
  6
CONTINUOUS
 62
     0
100
AcDbLine
 10
127.521947
 20
-141.602894
 30
0.0
 11
128.590762
 21
-140.534079
 31
0.0
  0
LINE
  5
32F
100
AcDbEntity
  8
0
  6
CONTINUOUS
 62
     0
100
AcDbLine
 10
129.510743
 20
-139.614098
 30
0.0
 11
131.34175
 21
-137.783091
 31
0.0
  0
LINE
  5
330
100
AcDbEntity
  8
0
  6
CONTINUOUS
 62
     0
100
AcDbLine
 10
127.444767
 20
-141.538652
 30
0.0
 11
128.590762
 21
-140.392658
 31
0.0
  0
LINE
  5
331
100
AcDbEntity
  8
0
  6
CONTINUOUS
 62
     0
100
AcDbLine
 10
129.523356
 20
-139.460063
 30
0.0
 11
131.200328
 21
-137.783091
 31
0.0
  0
LINE
  5
332
100
AcDbEntity
  8
0
  6
CONTINUOUS
 62
     0
100
AcDbLine
 10
127.444767
 20
-141.397231
 30
0.0
 11
128.590762
 21
-140.251237
 31
0.0
  0
LINE
  5
333
100
AcDbEntity
  8
0
  6
CONTINUOUS
 62
     0
100
AcDbLine
 10
129.55211
 20
-139.289888
 30
0.0
 11
131.058907
 21
-137.783091
 31
0.0
  0
LINE
  5
334
100
AcDbEntity
  8
0
  6
CONTINUOUS
 62
     0
100
AcDbLine
 10
127.444767
 20
-141.255809
 30
0.0
 11
128.590762
 21
-140.109815
 31
0.0
  0
LINE
  5
335
100
AcDbEntity
  8
0
  6
CONTINUOUS
 62
     0
100
AcDbLine
 10
129.604868
 20
-139.095709
 30
0.0
 11
130.917486
 21
-137.783091
 31
0.0
  0
LINE
  5
336
100
AcDbEntity
  8
0
  6
CONTINUOUS
 62
     0
100
AcDbLine
 10
127.444767
 20
-141.114388
 30
0.0
 11
128.590762
 21
-139.968394
 31
0.0
  0
LINE
  5
337
100
AcDbEntity
  8
0
  6
CONTINUOUS
 62
     0
100
AcDbLine
 10
129.630418
 20
-138.928738
 30
0.0
 11
130.776064
 21
-137.783091
 31
0.0
  0
LINE
  5
338
100
AcDbEntity
  8
0
  6
CONTINUOUS
 62
     0
100
AcDbLine
 10
127.444767
 20
-140.972967
 30
0.0
 11
128.590762
 21
-139.826972
 31
0.0
  0
LINE
  5
339
100
AcDbEntity
  8
0
  6
CONTINUOUS
 62
     0
100
AcDbLine
 10
129.488996
 20
-138.928738
 30
0.0
 11
130.634643
 21
-137.783091
 31
0.0
  0
LINE
  5
33A
100
AcDbEntity
  8
0
  6
CONTINUOUS
 62
     0
100
AcDbLine
 10
127.444767
 20
-140.831545
 30
0.0
 11
128.590762
 21
-139.685551
 31
0.0
  0
LINE
  5
33B
100
AcDbEntity
  8
0
  6
CONTINUOUS
 62
     0
100
AcDbLine
 10
129.347575
 20
-138.928738
 30
0.0
 11
130.493222
 21
-137.783091
 31
0.0
  0
LINE
  5
33C
100
AcDbEntity
  8
0
  6
CONTINUOUS
 62
     0
100
AcDbLine
 10
127.444767
 20
-140.690124
 30
0.0
 11
128.590762
 21
-139.54413
 31
0.0
  0
LINE
  5
33D
100
AcDbEntity
  8
0
  6
CONTINUOUS
 62
     0
100
AcDbLine
 10
129.206153
 20
-138.928738
 30
0.0
 11
130.3518
 21
-137.783091
 31
0.0
  0
LINE
  5
33E
100
AcDbEntity
  8
0
  6
CONTINUOUS
 62
     0
100
AcDbLine
 10
126.390576
 20
-141.602894
 30
0.0
 11
126.45144
 21
-141.54203
 31
0.0
  0
LINE
  5
33F
100
AcDbEntity
  8
0
  6
CONTINUOUS
 62
     0
100
AcDbLine
 10
127.444767
 20
-140.548703
 30
0.0
 11
128.590762
 21
-139.402708
 31
0.0
  0
LINE
  5
340
100
AcDbEntity
  8
0
  6
CONTINUOUS
 62
     0
100
AcDbLine
 10
129.064732
 20
-138.928738
 30
0.0
 11
130.210379
 21
-137.783091
 31
0.0
  0
LINE
  5
341
100
AcDbEntity
  8
0
  6
CONTINUOUS
 62
     0
100
AcDbLine
 10
126.249155
 20
-141.602894
 30
0.0
 11
126.45144
 21
-141.400608
 31
0.0
  0
LINE
  5
342
100
AcDbEntity
  8
0
  6
CONTINUOUS
 62
     0
100
AcDbLine
 10
127.444767
 20
-140.407281
 30
0.0
 11
128.590762
 21
-139.261287
 31
0.0
  0
LINE
  5
343
100
AcDbEntity
  8
0
  6
CONTINUOUS
 62
     0
100
AcDbLine
 10
128.923311
 20
-138.928738
 30
0.0
 11
130.068957
 21
-137.783091
 31
0.0
  0
LINE
  5
344
100
AcDbEntity
  8
0
  6
CONTINUOUS
 62
     0
100
AcDbLine
 10
126.107734
 20
-141.602894
 30
0.0
 11
126.45144
 21
-141.259187
 31
0.0
  0
LINE
  5
345
100
AcDbEntity
  8
0
  6
CONTINUOUS
 62
     0
100
AcDbLine
 10
127.444767
 20
-140.26586
 30
0.0
 11
128.590762
 21
-139.119866
 31
0.0
  0
LINE
  5
346
100
AcDbEntity
  8
0
  6
CONTINUOUS
 62
     0
100
AcDbLine
 10
128.781889
 20
-138.928738
 30
0.0
 11
129.927536
 21
-137.783091
 31
0.0
  0
LINE
  5
347
100
AcDbEntity
  8
0
  6
CONTINUOUS
 62
     0
100
AcDbLine
 10
125.966312
 20
-141.602894
 30
0.0
 11
126.45144
 21
-141.117766
 31
0.0
  0
LINE
  5
348
100
AcDbEntity
  8
0
  6
CONTINUOUS
 62
     0
100
AcDbLine
 10
127.444767
 20
-140.124439
 30
0.0
 11
128.590762
 21
-138.978444
 31
0.0
  0
LINE
  5
349
100
AcDbEntity
  8
0
  6
CONTINUOUS
 62
     0
100
AcDbLine
 10
128.640468
 20
-138.928738
 30
0.0
 11
129.786115
 21
-137.783091
 31
0.0
  0
LINE
  5
34A
100
AcDbEntity
  8
0
  6
CONTINUOUS
 62
     0
100
AcDbLine
 10
125.824891
 20
-141.602894
 30
0.0
 11
126.45144
 21
-140.976344
 31
0.0
  0
LINE
  5
34B
100
AcDbEntity
  8
0
  6
CONTINUOUS
 62
     0
100
AcDbLine
 10
127.444767
 20
-139.983017
 30
0.0
 11
129.644693
 21
-137.783091
 31
0.0
  0
LINE
  5
34C
100
AcDbEntity
  8
0
  6
CONTINUOUS
 62
     0
100
AcDbLine
 10
125.68347
 20
-141.602894
 30
0.0
 11
126.45144
 21
-140.834923
 31
0.0
  0
LINE
  5
34D
100
AcDbEntity
  8
0
  6
CONTINUOUS
 62
     0
100
AcDbLine
 10
127.444767
 20
-139.841596
 30
0.0
 11
129.503272
 21
-137.783091
 31
0.0
  0
LINE
  5
34E
100
AcDbEntity
  8
0
  6
CONTINUOUS
 62
     0
100
AcDbLine
 10
125.542048
 20
-141.602894
 30
0.0
 11
126.45144
 21
-140.693502
 31
0.0
  0
LINE
  5
34F
100
AcDbEntity
  8
0
  6
CONTINUOUS
 62
     0
100
AcDbLine
 10
127.444767
 20
-139.700174
 30
0.0
 11
129.361851
 21
-137.783091
 31
0.0
  0
LINE
  5
350
100
AcDbEntity
  8
0
  6
CONTINUOUS
 62
     0
100
AcDbLine
 10
125.400627
 20
-141.602894
 30
0.0
 11
126.45144
 21
-140.55208
 31
0.0
  0
LINE
  5
351
100
AcDbEntity
  8
0
  6
CONTINUOUS
 62
     0
100
AcDbLine
 10
127.444767
 20
-139.558753
 30
0.0
 11
129.220429
 21
-137.783091
 31
0.0
  0
LINE
  5
352
100
AcDbEntity
  8
0
  6
CONTINUOUS
 62
     0
100
AcDbLine
 10
125.282295
 20
-141.579805
 30
0.0
 11
126.45144
 21
-140.410659
 31
0.0
  0
LINE
  5
353
100
AcDbEntity
  8
0
  6
CONTINUOUS
 62
     0
100
AcDbLine
 10
127.444767
 20
-139.417332
 30
0.0
 11
129.079008
 21
-137.783091
 31
0.0
  0
LINE
  5
354
100
AcDbEntity
  8
0
  6
CONTINUOUS
 62
     0
100
AcDbLine
 10
125.211585
 20
-141.509093
 30
0.0
 11
126.45144
 21
-140.269238
 31
0.0
  0
LINE
  5
355
100
AcDbEntity
  8
0
  6
CONTINUOUS
 62
     0
100
AcDbLine
 10
127.444767
 20
-139.27591
 30
0.0
 11
128.937587
 21
-137.783091
 31
0.0
  0
LINE
  5
356
100
AcDbEntity
  8
0
  6
CONTINUOUS
 62
     0
100
AcDbLine
 10
125.140875
 20
-141.438381
 30
0.0
 11
126.45144
 21
-140.127816
 31
0.0
  0
LINE
  5
357
100
AcDbEntity
  8
0
  6
CONTINUOUS
 62
     0
100
AcDbLine
 10
127.444767
 20
-139.134489
 30
0.0
 11
128.796165
 21
-137.783091
 31
0.0
  0
LINE
  5
358
100
AcDbEntity
  8
0
  6
CONTINUOUS
 62
     0
100
AcDbLine
 10
125.070165
 20
-141.36767
 30
0.0
 11
126.45144
 21
-139.986395
 31
0.0
  0
LINE
  5
359
100
AcDbEntity
  8
0
  6
CONTINUOUS
 62
     0
100
AcDbLine
 10
127.444767
 20
-138.993068
 30
0.0
 11
128.654744
 21
-137.783091
 31
0.0
  0
LINE
  5
35A
100
AcDbEntity
  8
0
  6
CONTINUOUS
 62
     0
100
AcDbLine
 10
124.999456
 20
-141.296958
 30
0.0
 11
126.45144
 21
-139.844973
 31
0.0
  0
LINE
  5
35B
100
AcDbEntity
  8
0
  6
CONTINUOUS
 62
     0
100
AcDbLine
 10
127.367676
 20
-138.928738
 30
0.0
 11
128.513323
 21
-137.783091
 31
0.0
  0
LINE
  5
35C
100
AcDbEntity
  8
0
  6
CONTINUOUS
 62
     0
100
AcDbLine
 10
124.928746
 20
-141.226246
 30
0.0
 11
126.45144
 21
-139.703552
 31
0.0
  0
LINE
  5
35D
100
AcDbEntity
  8
0
  6
CONTINUOUS
 62
     0
100
AcDbLine
 10
127.226254
 20
-138.928738
 30
0.0
 11
128.371901
 21
-137.783091
 31
0.0
  0
LINE
  5
35E
100
AcDbEntity
  8
0
  6
CONTINUOUS
 62
     0
100
AcDbLine
 10
124.858036
 20
-141.155535
 30
0.0
 11
126.45144
 21
-139.562131
 31
0.0
  0
LINE
  5
35F
100
AcDbEntity
  8
0
  6
CONTINUOUS
 62
     0
100
AcDbLine
 10
127.084833
 20
-138.928738
 30
0.0
 11
128.23048
 21
-137.783091
 31
0.0
  0
LINE
  5
360
100
AcDbEntity
  8
0
  6
CONTINUOUS
 62
     0
100
AcDbLine
 10
124.787327
 20
-141.084823
 30
0.0
 11
126.45144
 21
-139.420709
 31
0.0
  0
LINE
  5
361
100
AcDbEntity
  8
0
  6
CONTINUOUS
 62
     0
100
AcDbLine
 10
126.943412
 20
-138.928738
 30
0.0
 11
128.089058
 21
-137.783091
 31
0.0
  0
LINE
  5
362
100
AcDbEntity
  8
0
  6
CONTINUOUS
 62
     0
100
AcDbLine
 10
124.716617
 20
-141.014111
 30
0.0
 11
126.45144
 21
-139.279288
 31
0.0
  0
LINE
  5
363
100
AcDbEntity
  8
0
  6
CONTINUOUS
 62
     0
100
AcDbLine
 10
126.80199
 20
-138.928738
 30
0.0
 11
127.947637
 21
-137.783091
 31
0.0
  0
LINE
  5
364
100
AcDbEntity
  8
0
  6
CONTINUOUS
 62
     0
100
AcDbLine
 10
124.645907
 20
-140.9434
 30
0.0
 11
126.45144
 21
-139.137867
 31
0.0
  0
LINE
  5
365
100
AcDbEntity
  8
0
  6
CONTINUOUS
 62
     0
100
AcDbLine
 10
126.660569
 20
-138.928738
 30
0.0
 11
127.806216
 21
-137.783091
 31
0.0
  0
LINE
  5
366
100
AcDbEntity
  8
0
  6
CONTINUOUS
 62
     0
100
AcDbLine
 10
124.575198
 20
-140.872688
 30
0.0
 11
126.45144
 21
-138.996445
 31
0.0
  0
LINE
  5
367
100
AcDbEntity
  8
0
  6
CONTINUOUS
 62
     0
100
AcDbLine
 10
126.519148
 20
-138.928738
 30
0.0
 11
127.664794
 21
-137.783091
 31
0.0
  0
LINE
  5
368
100
AcDbEntity
  8
0
  6
CONTINUOUS
 62
     0
100
AcDbLine
 10
124.504488
 20
-140.801976
 30
0.0
 11
127.523373
 21
-137.783091
 31
0.0
  0
LINE
  5
369
100
AcDbEntity
  8
0
  6
CONTINUOUS
 62
     0
100
AcDbLine
 10
124.433778
 20
-140.731265
 30
0.0
 11
127.381952
 21
-137.783091
 31
0.0
  0
LINE
  5
36A
100
AcDbEntity
  8
0
  6
CONTINUOUS
 62
     0
100
AcDbLine
 10
124.363069
 20
-140.660553
 30
0.0
 11
127.24053
 21
-137.783091
 31
0.0
  0
LINE
  5
36B
100
AcDbEntity
  8
0
  6
CONTINUOUS
 62
     0
100
AcDbLine
 10
124.292359
 20
-140.589841
 30
0.0
 11
127.099109
 21
-137.783091
 31
0.0
  0
LINE
  5
36C
100
AcDbEntity
  8
0
  6
CONTINUOUS
 62
     0
100
AcDbLine
 10
124.221649
 20
-140.51913
 30
0.0
 11
126.957688
 21
-137.783091
 31
0.0
  0
LINE
  5
36D
100
AcDbEntity
  8
0
  6
CONTINUOUS
 62
     0
100
AcDbLine
 10
122.996464
 20
-141.602894
 30
0.0
 11
123.013331
 21
-141.586027
 31
0.0
  0
LINE
  5
36E
100
AcDbEntity
  8
0
  6
CONTINUOUS
 62
     0
100
AcDbLine
 10
124.15094
 20
-140.448418
 30
0.0
 11
125.296981
 21
-139.302376
 31
0.0
  0
LINE
  5
36F
100
AcDbEntity
  8
0
  6
CONTINUOUS
 62
     0
100
AcDbLine
 10
125.305383
 20
-139.293975
 30
0.0
 11
126.816266
 21
-137.783091
 31
0.0
  0
LINE
  5
370
100
AcDbEntity
  8
0
  6
CONTINUOUS
 62
     0
100
AcDbLine
 10
122.855043
 20
-141.602894
 30
0.0
 11
123.013331
 21
-141.444605
 31
0.0
  0
LINE
  5
371
100
AcDbEntity
  8
0
  6
CONTINUOUS
 62
     0
100
AcDbLine
 10
124.08023
 20
-140.377706
 30
0.0
 11
125.226274
 21
-139.231662
 31
0.0
  0
LINE
  5
372
100
AcDbEntity
  8
0
  6
CONTINUOUS
 62
     0
100
AcDbLine
 10
125.305383
 20
-139.152553
 30
0.0
 11
126.674845
 21
-137.783091
 31
0.0
  0
LINE
  5
373
100
AcDbEntity
  8
0
  6
CONTINUOUS
 62
     0
100
AcDbLine
 10
122.713621
 20
-141.602894
 30
0.0
 11
123.013331
 21
-141.303184
 31
0.0
  0
LINE
  5
374
100
AcDbEntity
  8
0
  6
CONTINUOUS
 62
     0
100
AcDbLine
 10
124.00952
 20
-140.306995
 30
0.0
 11
125.155567
 21
-139.160948
 31
0.0
  0
LINE
  5
375
100
AcDbEntity
  8
0
  6
CONTINUOUS
 62
     0
100
AcDbLine
 10
125.305383
 20
-139.011132
 30
0.0
 11
126.533424
 21
-137.783091
 31
0.0
  0
LINE
  5
376
100
AcDbEntity
  8
0
  6
CONTINUOUS
 62
     0
100
AcDbLine
 10
122.5722
 20
-141.602894
 30
0.0
 11
123.013331
 21
-141.161763
 31
0.0
  0
LINE
  5
377
100
AcDbEntity
  8
0
  6
CONTINUOUS
 62
     0
100
AcDbLine
 10
123.93881
 20
-140.236283
 30
0.0
 11
125.08486
 21
-139.090234
 31
0.0
  0
LINE
  5
378
100
AcDbEntity
  8
0
  6
CONTINUOUS
 62
     0
100
AcDbLine
 10
125.305383
 20
-138.869711
 30
0.0
 11
126.392002
 21
-137.783091
 31
0.0
  0
LINE
  5
379
100
AcDbEntity
  8
0
  6
CONTINUOUS
 62
     0
100
AcDbLine
 10
122.430779
 20
-141.602894
 30
0.0
 11
123.013331
 21
-141.020341
 31
0.0
  0
LINE
  5
37A
100
AcDbEntity
  8
0
  6
CONTINUOUS
 62
     0
100
AcDbLine
 10
123.868101
 20
-140.165571
 30
0.0
 11
125.014152
 21
-139.01952
 31
0.0
  0
LINE
  5
37B
100
AcDbEntity
  8
0
  6
CONTINUOUS
 62
     0
100
AcDbLine
 10
125.305383
 20
-138.728289
 30
0.0
 11
126.250581
 21
-137.783091
 31
0.0
  0
LINE
  5
37C
100
AcDbEntity
  8
0
  6
CONTINUOUS
 62
     0
100
AcDbLine
 10
122.289357
 20
-141.602894
 30
0.0
 11
123.013331
 21
-140.87892
 31
0.0
  0
LINE
  5
37D
100
AcDbEntity
  8
0
  6
CONTINUOUS
 62
     0
100
AcDbLine
 10
123.797391
 20
-140.09486
 30
0.0
 11
124.943445
 21
-138.948805
 31
0.0
  0
LINE
  5
37E
100
AcDbEntity
  8
0
  6
CONTINUOUS
 62
     0
100
AcDbLine
 10
125.305383
 20
-138.586868
 30
0.0
 11
126.10916
 21
-137.783091
 31
0.0
  0
LINE
  5
37F
100
AcDbEntity
  8
0
  6
CONTINUOUS
 62
     0
100
AcDbLine
 10
122.147936
 20
-141.602894
 30
0.0
 11
123.013331
 21
-140.737498
 31
0.0
  0
LINE
  5
380
100
AcDbEntity
  8
0
  6
CONTINUOUS
 62
     0
100
AcDbLine
 10
123.726681
 20
-140.024148
 30
0.0
 11
124.872738
 21
-138.878091
 31
0.0
  0
LINE
  5
381
100
AcDbEntity
  8
0
  6
CONTINUOUS
 62
     0
100
AcDbLine
 10
125.305383
 20
-138.445447
 30
0.0
 11
125.967738
 21
-137.783091
 31
0.0
  0
LINE
  5
382
100
AcDbEntity
  8
0
  6
CONTINUOUS
 62
     0
100
AcDbLine
 10
122.006514
 20
-141.602894
 30
0.0
 11
123.013331
 21
-140.596077
 31
0.0
  0
LINE
  5
383
100
AcDbEntity
  8
0
  6
CONTINUOUS
 62
     0
100
AcDbLine
 10
123.655972
 20
-139.953436
 30
0.0
 11
124.802031
 21
-138.807377
 31
0.0
  0
LINE
  5
384
100
AcDbEntity
  8
0
  6
CONTINUOUS
 62
     0
100
AcDbLine
 10
125.305383
 20
-138.304025
 30
0.0
 11
125.826317
 21
-137.783091
 31
0.0
  0
LINE
  5
385
100
AcDbEntity
  8
0
  6
CONTINUOUS
 62
     0
100
AcDbLine
 10
121.866876
 20
-141.601111
 30
0.0
 11
123.013331
 21
-140.454656
 31
0.0
  0
LINE
  5
386
100
AcDbEntity
  8
0
  6
CONTINUOUS
 62
     0
100
AcDbLine
 10
123.585262
 20
-139.882725
 30
0.0
 11
124.731324
 21
-138.736663
 31
0.0
  0
LINE
  5
387
100
AcDbEntity
  8
0
  6
CONTINUOUS
 62
     0
100
AcDbLine
 10
125.305383
 20
-138.162604
 30
0.0
 11
125.684895
 21
-137.783091
 31
0.0
  0
LINE
  5
388
100
AcDbEntity
  8
0
  6
CONTINUOUS
 62
     0
100
AcDbLine
 10
121.866888
 20
-141.459677
 30
0.0
 11
123.013331
 21
-140.313234
 31
0.0
  0
LINE
  5
389
100
AcDbEntity
  8
0
  6
CONTINUOUS
 62
     0
100
AcDbLine
 10
123.514552
 20
-139.812013
 30
0.0
 11
124.660616
 21
-138.665949
 31
0.0
  0
LINE
  5
38A
100
AcDbEntity
  8
0
  6
CONTINUOUS
 62
     0
100
AcDbLine
 10
125.305383
 20
-138.021183
 30
0.0
 11
125.543474
 21
-137.783091
 31
0.0
  0
LINE
  5
38B
100
AcDbEntity
  8
0
  6
CONTINUOUS
 62
     0
100
AcDbLine
 10
121.866901
 20
-141.318243
 30
0.0
 11
123.013331
 21
-140.171813
 31
0.0
  0
LINE
  5
38C
100
AcDbEntity
  8
0
  6
CONTINUOUS
 62
     0
100
AcDbLine
 10
123.443843
 20
-139.741301
 30
0.0
 11
124.589909
 21
-138.595235
 31
0.0
  0
LINE
  5
38D
100
AcDbEntity
  8
0
  6
CONTINUOUS
 62
     0
100
AcDbLine
 10
125.305383
 20
-137.879761
 30
0.0
 11
125.402053
 21
-137.783091
 31
0.0
  0
LINE
  5
38E
100
AcDbEntity
  8
0
  6
CONTINUOUS
 62
     0
100
AcDbLine
 10
121.866913
 20
-141.176809
 30
0.0
 11
123.013331
 21
-140.030392
 31
0.0
  0
LINE
  5
38F
100
AcDbEntity
  8
0
  6
CONTINUOUS
 62
     0
100
AcDbLine
 10
123.373133
 20
-139.67059
 30
0.0
 11
124.519202
 21
-138.524521
 31
0.0
  0
LINE
  5
390
100
AcDbEntity
  8
0
  6
CONTINUOUS
 62
     0
100
AcDbLine
 10
121.866926
 20
-141.035376
 30
0.0
 11
123.013331
 21
-139.88897
 31
0.0
  0
LINE
  5
391
100
AcDbEntity
  8
0
  6
CONTINUOUS
 62
     0
100
AcDbLine
 10
123.302423
 20
-139.599878
 30
0.0
 11
124.448495
 21
-138.453807
 31
0.0
  0
LINE
  5
392
100
AcDbEntity
  8
0
  6
CONTINUOUS
 62
     0
100
AcDbLine
 10
121.866938
 20
-140.893942
 30
0.0
 11
123.013331
 21
-139.747549
 31
0.0
  0
LINE
  5
393
100
AcDbEntity
  8
0
  6
CONTINUOUS
 62
     0
100
AcDbLine
 10
123.231714
 20
-139.529166
 30
0.0
 11
124.377788
 21
-138.383092
 31
0.0
  0
LINE
  5
394
100
AcDbEntity
  8
0
  6
CONTINUOUS
 62
     0
100
AcDbLine
 10
121.866951
 20
-140.752508
 30
0.0
 11
123.013331
 21
-139.606128
 31
0.0
  0
LINE
  5
395
100
AcDbEntity
  8
0
  6
CONTINUOUS
 62
     0
100
AcDbLine
 10
123.161004
 20
-139.458455
 30
0.0
 11
124.30708
 21
-138.312378
 31
0.0
  0
LINE
  5
396
100
AcDbEntity
  8
0
  6
CONTINUOUS
 62
     0
100
AcDbLine
 10
121.866963
 20
-140.611074
 30
0.0
 11
123.013331
 21
-139.464706
 31
0.0
  0
LINE
  5
397
100
AcDbEntity
  8
0
  6
CONTINUOUS
 62
     0
100
AcDbLine
 10
123.090294
 20
-139.387743
 30
0.0
 11
124.236373
 21
-138.241664
 31
0.0
  0
LINE
  5
398
100
AcDbEntity
  8
0
  6
CONTINUOUS
 62
     0
100
AcDbLine
 10
121.866975
 20
-140.46964
 30
0.0
 11
123.013331
 21
-139.323285
 31
0.0
  0
LINE
  5
399
100
AcDbEntity
  8
0
  6
CONTINUOUS
 62
     0
100
AcDbLine
 10
123.019585
 20
-139.317031
 30
0.0
 11
124.165666
 21
-138.17095
 31
0.0
  0
LINE
  5
39A
100
AcDbEntity
  8
0
  6
CONTINUOUS
 62
     0
100
AcDbLine
 10
121.866988
 20
-140.328207
 30
0.0
 11
124.094959
 21
-138.100236
 31
0.0
  0
LINE
  5
39B
100
AcDbEntity
  8
0
  6
CONTINUOUS
 62
     0
100
AcDbLine
 10
121.867
 20
-140.186773
 30
0.0
 11
124.024251
 21
-138.029522
 31
0.0
  0
LINE
  5
39C
100
AcDbEntity
  8
0
  6
CONTINUOUS
 62
     0
100
AcDbLine
 10
121.867013
 20
-140.045339
 30
0.0
 11
123.953544
 21
-137.958808
 31
0.0
  0
LINE
  5
39D
100
AcDbEntity
  8
0
  6
CONTINUOUS
 62
     0
100
AcDbLine
 10
121.867025
 20
-139.903905
 30
0.0
 11
123.882837
 21
-137.888093
 31
0.0
  0
LINE
  5
39E
100
AcDbEntity
  8
0
  6
CONTINUOUS
 62
     0
100
AcDbLine
 10
121.867038
 20
-139.762471
 30
0.0
 11
123.81213
 21
-137.817379
 31
0.0
  0
LINE
  5
39F
100
AcDbEntity
  8
0
  6
CONTINUOUS
 62
     0
100
AcDbLine
 10
121.86705
 20
-139.621038
 30
0.0
 11
123.741423
 21
-137.746665
 31
0.0
  0
LINE
  5
3A0
100
AcDbEntity
  8
0
  6
CONTINUOUS
 62
     0
100
AcDbLine
 10
121.867063
 20
-139.479604
 30
0.0
 11
123.670715
 21
-137.675951
 31
0.0
  0
LINE
  5
3A1
100
AcDbEntity
  8
0
  6
CONTINUOUS
 62
     0
100
AcDbLine
 10
121.867075
 20
-139.33817
 30
0.0
 11
123.600008
 21
-137.605237
 31
0.0
  0
LINE
  5
3A2
100
AcDbEntity
  8
0
  6
CONTINUOUS
 62
     0
100
AcDbLine
 10
121.867087
 20
-139.196736
 30
0.0
 11
123.529301
 21
-137.534523
 31
0.0
  0
LINE
  5
3A3
100
AcDbEntity
  8
0
  6
CONTINUOUS
 62
     0
100
AcDbLine
 10
121.8671
 20
-139.055302
 30
0.0
 11
123.458594
 21
-137.463809
 31
0.0
  0
LINE
  5
3A4
100
AcDbEntity
  8
0
  6
CONTINUOUS
 62
     0
100
AcDbLine
 10
121.867112
 20
-138.913869
 30
0.0
 11
123.387886
 21
-137.393094
 31
0.0
  0
LINE
  5
3A5
100
AcDbEntity
  8
0
  6
CONTINUOUS
 62
     0
100
AcDbLine
 10
121.867125
 20
-138.772435
 30
0.0
 11
123.317179
 21
-137.32238
 31
0.0
  0
LINE
  5
3A6
100
AcDbEntity
  8
0
  6
CONTINUOUS
 62
     0
100
AcDbLine
 10
121.867137
 20
-138.631001
 30
0.0
 11
123.246472
 21
-137.251666
 31
0.0
  0
LINE
  5
3A7
100
AcDbEntity
  8
0
  6
CONTINUOUS
 62
     0
100
AcDbLine
 10
121.86715
 20
-138.489567
 30
0.0
 11
123.175765
 21
-137.180952
 31
0.0
  0
LINE
  5
3A8
100
AcDbEntity
  8
0
  6
CONTINUOUS
 62
     0
100
AcDbLine
 10
121.867162
 20
-138.348133
 30
0.0
 11
123.10214
 21
-137.113156
 31
0.0
  0
LINE
  5
3A9
100
AcDbEntity
  8
0
  6
CONTINUOUS
 62
     0
100
AcDbLine
 10
121.867174
 20
-138.2067
 30
0.0
 11
123.019192
 21
-137.054682
 31
0.0
  0
LINE
  5
3AA
100
AcDbEntity
  8
0
  6
CONTINUOUS
 62
     0
100
AcDbLine
 10
121.867187
 20
-138.065266
 30
0.0
 11
122.926013
 21
-137.00644
 31
0.0
  0
LINE
  5
3AB
100
AcDbEntity
  8
0
  6
CONTINUOUS
 62
     0
100
AcDbLine
 10
121.867199
 20
-137.923832
 30
0.0
 11
122.821119
 21
-136.969913
 31
0.0
  0
LINE
  5
3AC
100
AcDbEntity
  8
0
  6
CONTINUOUS
 62
     0
100
AcDbLine
 10
121.867212
 20
-137.782398
 30
0.0
 11
122.701627
 21
-136.947983
 31
0.0
  0
LINE
  5
3AD
100
AcDbEntity
  8
0
  6
CONTINUOUS
 62
     0
100
AcDbLine
 10
121.869893
 20
-137.638295
 30
0.0
 11
122.561413
 21
-136.946776
 31
0.0
  0
LINE
  5
3AE
100
AcDbEntity
  8
0
  6
CONTINUOUS
 62
     0
100
AcDbLine
 10
121.906917
 20
-137.459851
 30
0.0
 11
122.382968
 21
-136.983799
 31
0.0
  0
ENDBLK
  5
3AF
100
AcDbEntity
  8
0
  6
ByBlock
 62
     0
100
AcDbBlockEnd
  0
BLOCK
  5
3B2
100
AcDbEntity
  8
0
  6
ByBlock
 62
     0
100
AcDbBlockBegin
  2
*X3
 70
     1
 10
0.0
 20
0.0
 30
0.0
  3
*X3
  1

  0
LINE
  5
3B3
100
AcDbEntity
  8
0
  6
CONTINUOUS
 62
     0
100
AcDbLine
 10
138.476679
 20
-141.537606
 30
0.0
 11
138.494643
 21
-141.519642
 31
0.0
  0
LINE
  5
3B4
100
AcDbEntity
  8
0
  6
CONTINUOUS
 62
     0
100
AcDbLine
 10
138.227706
 20
-141.645158
 30
0.0
 11
138.602195
 21
-141.270669
 31
0.0
  0
LINE
  5
3B5
100
AcDbEntity
  8
0
  6
CONTINUOUS
 62
     0
100
AcDbLine
 10
138.085518
 20
-141.645924
 30
0.0
 11
138.602961
 21
-141.128482
 31
0.0
  0
LINE
  5
3B6
100
AcDbEntity
  8
0
  6
CONTINUOUS
 62
     0
100
AcDbLine
 10
137.944097
 20
-141.645924
 30
0.0
 11
138.602961
 21
-140.98706
 31
0.0
  0
LINE
  5
3B7
100
AcDbEntity
  8
0
  6
CONTINUOUS
 62
     0
100
AcDbLine
 10
137.802676
 20
-141.645924
 30
0.0
 11
138.602961
 21
-140.845639
 31
0.0
  0
LINE
  5
3B8
100
AcDbEntity
  8
0
  6
CONTINUOUS
 62
     0
100
AcDbLine
 10
137.661254
 20
-141.645924
 30
0.0
 11
138.602961
 21
-140.704218
 31
0.0
  0
LINE
  5
3B9
100
AcDbEntity
  8
0
  6
CONTINUOUS
 62
     0
100
AcDbLine
 10
137.519833
 20
-141.645924
 30
0.0
 11
138.602961
 21
-140.562796
 31
0.0
  0
LINE
  5
3BA
100
AcDbEntity
  8
0
  6
CONTINUOUS
 62
     0
100
AcDbLine
 10
137.378412
 20
-141.645924
 30
0.0
 11
138.602961
 21
-140.421375
 31
0.0
  0
LINE
  5
3BB
100
AcDbEntity
  8
0
  6
CONTINUOUS
 62
     0
100
AcDbLine
 10
137.23699
 20
-141.645924
 30
0.0
 11
137.728992
 21
-141.153923
 31
0.0
  0
LINE
  5
3BC
100
AcDbEntity
  8
0
  6
CONTINUOUS
 62
     0
100
AcDbLine
 10
137.924149
 20
-140.958765
 30
0.0
 11
138.602961
 21
-140.279953
 31
0.0
  0
LINE
  5
3BD
100
AcDbEntity
  8
0
  6
CONTINUOUS
 62
     0
100
AcDbLine
 10
137.095569
 20
-141.645924
 30
0.0
 11
137.587571
 21
-141.153923
 31
0.0
  0
LINE
  5
3BE
100
AcDbEntity
  8
0
  6
CONTINUOUS
 62
     0
100
AcDbLine
 10
137.924149
 20
-140.817344
 30
0.0
 11
138.602961
 21
-140.138532
 31
0.0
  0
LINE
  5
3BF
100
AcDbEntity
  8
0
  6
CONTINUOUS
 62
     0
100
AcDbLine
 10
136.954148
 20
-141.645924
 30
0.0
 11
137.446149
 21
-141.153923
 31
0.0
  0
LINE
  5
3C0
100
AcDbEntity
  8
0
  6
CONTINUOUS
 62
     0
100
AcDbLine
 10
137.924149
 20
-140.675923
 30
0.0
 11
138.602961
 21
-139.997111
 31
0.0
  0
LINE
  5
3C1
100
AcDbEntity
  8
0
  6
CONTINUOUS
 62
     0
100
AcDbLine
 10
136.812726
 20
-141.645924
 30
0.0
 11
137.304728
 21
-141.153923
 31
0.0
  0
LINE
  5
3C2
100
AcDbEntity
  8
0
  6
CONTINUOUS
 62
     0
100
AcDbLine
 10
137.924149
 20
-140.534501
 30
0.0
 11
138.602961
 21
-139.855689
 31
0.0
  0
LINE
  5
3C3
100
AcDbEntity
  8
0
  6
CONTINUOUS
 62
     0
100
AcDbLine
 10
136.671305
 20
-141.645924
 30
0.0
 11
137.163307
 21
-141.153923
 31
0.0
  0
LINE
  5
3C4
100
AcDbEntity
  8
0
  6
CONTINUOUS
 62
     0
100
AcDbLine
 10
137.924149
 20
-140.39308
 30
0.0
 11
138.602961
 21
-139.714268
 31
0.0
  0
LINE
  5
3C5
100
AcDbEntity
  8
0
  6
CONTINUOUS
 62
     0
100
AcDbLine
 10
136.529884
 20
-141.645924
 30
0.0
 11
137.021885
 21
-141.153923
 31
0.0
  0
LINE
  5
3C6
100
AcDbEntity
  8
0
  6
CONTINUOUS
 62
     0
100
AcDbLine
 10
137.924149
 20
-140.251658
 30
0.0
 11
138.602961
 21
-139.572847
 31
0.0
  0
LINE
  5
3C7
100
AcDbEntity
  8
0
  6
CONTINUOUS
 62
     0
100
AcDbLine
 10
136.388462
 20
-141.645924
 30
0.0
 11
136.880464
 21
-141.153923
 31
0.0
  0
LINE
  5
3C8
100
AcDbEntity
  8
0
  6
CONTINUOUS
 62
     0
100
AcDbLine
 10
137.924149
 20
-140.110237
 30
0.0
 11
138.602961
 21
-139.431425
 31
0.0
  0
LINE
  5
3C9
100
AcDbEntity
  8
0
  6
CONTINUOUS
 62
     0
100
AcDbLine
 10
136.247041
 20
-141.645924
 30
0.0
 11
136.739042
 21
-141.153923
 31
0.0
  0
LINE
  5
3CA
100
AcDbEntity
  8
0
  6
CONTINUOUS
 62
     0
100
AcDbLine
 10
137.924149
 20
-139.968816
 30
0.0
 11
138.602961
 21
-139.290004
 31
0.0
  0
LINE
  5
3CB
100
AcDbEntity
  8
0
  6
CONTINUOUS
 62
     0
100
AcDbLine
 10
136.105619
 20
-141.645924
 30
0.0
 11
136.597621
 21
-141.153923
 31
0.0
  0
LINE
  5
3CC
100
AcDbEntity
  8
0
  6
CONTINUOUS
 62
     0
100
AcDbLine
 10
137.897955
 20
-139.853589
 30
0.0
 11
138.602961
 21
-139.148583
 31
0.0
  0
LINE
  5
3CD
100
AcDbEntity
  8
0
  6
CONTINUOUS
 62
     0
100
AcDbLine
 10
135.964198
 20
-141.645924
 30
0.0
 11
136.4562
 21
-141.153923
 31
0.0
  0
LINE
  5
3CE
100
AcDbEntity
  8
0
  6
CONTINUOUS
 62
     0
100
AcDbLine
 10
137.756533
 20
-139.853589
 30
0.0
 11
138.602961
 21
-139.007161
 31
0.0
  0
LINE
  5
3CF
100
AcDbEntity
  8
0
  6
CONTINUOUS
 62
     0
100
AcDbLine
 10
135.822777
 20
-141.645924
 30
0.0
 11
136.314778
 21
-141.153923
 31
0.0
  0
LINE
  5
3D0
100
AcDbEntity
  8
0
  6
CONTINUOUS
 62
     0
100
AcDbLine
 10
137.615112
 20
-139.853589
 30
0.0
 11
138.602961
 21
-138.86574
 31
0.0
  0
LINE
  5
3D1
100
AcDbEntity
  8
0
  6
CONTINUOUS
 62
     0
100
AcDbLine
 10
135.681355
 20
-141.645924
 30
0.0
 11
136.173357
 21
-141.153923
 31
0.0
  0
LINE
  5
3D2
100
AcDbEntity
  8
0
  6
CONTINUOUS
 62
     0
100
AcDbLine
 10
137.473691
 20
-139.853589
 30
0.0
 11
138.602961
 21
-138.724319
 31
0.0
  0
LINE
  5
3D3
100
AcDbEntity
  8
0
  6
CONTINUOUS
 62
     0
100
AcDbLine
 10
135.539934
 20
-141.645924
 30
0.0
 11
136.031936
 21
-141.153923
 31
0.0
  0
LINE
  5
3D4
100
AcDbEntity
  8
0
  6
CONTINUOUS
 62
     0
100
AcDbLine
 10
137.332269
 20
-139.853589
 30
0.0
 11
137.842276
 21
-139.343582
 31
0.0
  0
LINE
  5
3D5
100
AcDbEntity
  8
0
  6
CONTINUOUS
 62
     0
100
AcDbLine
 10
137.924149
 20
-139.261709
 30
0.0
 11
138.602961
 21
-138.582897
 31
0.0
  0
LINE
  5
3D6
100
AcDbEntity
  8
0
  6
CONTINUOUS
 62
     0
100
AcDbLine
 10
135.398513
 20
-141.645924
 30
0.0
 11
135.890514
 21
-141.153923
 31
0.0
  0
LINE
  5
3D7
100
AcDbEntity
  8
0
  6
CONTINUOUS
 62
     0
100
AcDbLine
 10
137.190848
 20
-139.853589
 30
0.0
 11
137.700854
 21
-139.343582
 31
0.0
  0
LINE
  5
3D8
100
AcDbEntity
  8
0
  6
CONTINUOUS
 62
     0
100
AcDbLine
 10
137.924149
 20
-139.120288
 30
0.0
 11
138.602961
 21
-138.441476
 31
0.0
  0
LINE
  5
3D9
100
AcDbEntity
  8
0
  6
CONTINUOUS
 62
     0
100
AcDbLine
 10
135.257102
 20
-141.645914
 30
0.0
 11
135.749093
 21
-141.153923
 31
0.0
  0
LINE
  5
3DA
100
AcDbEntity
  8
0
  6
CONTINUOUS
 62
     0
100
AcDbLine
 10
137.049427
 20
-139.853589
 30
0.0
 11
137.559433
 21
-139.343582
 31
0.0
  0
LINE
  5
3DB
100
AcDbEntity
  8
0
  6
CONTINUOUS
 62
     0
100
AcDbLine
 10
137.924149
 20
-138.978866
 30
0.0
 11
138.602961
 21
-138.300054
 31
0.0
  0
LINE
  5
3DC
100
AcDbEntity
  8
0
  6
CONTINUOUS
 62
     0
100
AcDbLine
 10
135.135518
 20
-141.626076
 30
0.0
 11
135.610079
 21
-141.151515
 31
0.0
  0
LINE
  5
3DD
100
AcDbEntity
  8
0
  6
CONTINUOUS
 62
     0
100
AcDbLine
 10
136.908005
 20
-139.853589
 30
0.0
 11
137.418012
 21
-139.343582
 31
0.0
  0
LINE
  5
3DE
100
AcDbEntity
  8
0
  6
CONTINUOUS
 62
     0
100
AcDbLine
 10
137.924149
 20
-138.837445
 30
0.0
 11
138.602961
 21
-138.158633
 31
0.0
  0
LINE
  5
3DF
100
AcDbEntity
  8
0
  6
CONTINUOUS
 62
     0
100
AcDbLine
 10
135.040092
 20
-141.580081
 30
0.0
 11
135.536437
 21
-141.083736
 31
0.0
  0
LINE
  5
3E0
100
AcDbEntity
  8
0
  6
CONTINUOUS
 62
     0
100
AcDbLine
 10
136.766584
 20
-139.853589
 30
0.0
 11
137.27659
 21
-139.343582
 31
0.0
  0
LINE
  5
3E1
100
AcDbEntity
  8
0
  6
CONTINUOUS
 62
     0
100
AcDbLine
 10
137.924149
 20
-138.696024
 30
0.0
 11
138.598023
 21
-138.02215
 31
0.0
  0
LINE
  5
3E2
100
AcDbEntity
  8
0
  6
CONTINUOUS
 62
     0
100
AcDbLine
 10
134.963874
 20
-141.514878
 30
0.0
 11
135.531889
 21
-140.946862
 31
0.0
  0
LINE
  5
3E3
100
AcDbEntity
  8
0
  6
CONTINUOUS
 62
     0
100
AcDbLine
 10
136.625162
 20
-139.853589
 30
0.0
 11
137.135169
 21
-139.343582
 31
0.0
  0
LINE
  5
3E4
100
AcDbEntity
  8
0
  6
CONTINUOUS
 62
     0
100
AcDbLine
 10
137.924149
 20
-138.554602
 30
0.0
 11
138.564688
 21
-137.914064
 31
0.0
  0
LINE
  5
3E5
100
AcDbEntity
  8
0
  6
CONTINUOUS
 62
     0
100
AcDbLine
 10
134.905684
 20
-141.431646
 30
0.0
 11
135.531889
 21
-140.805441
 31
0.0
  0
LINE
  5
3E6
100
AcDbEntity
  8
0
  6
CONTINUOUS
 62
     0
100
AcDbLine
 10
136.483741
 20
-139.853589
 30
0.0
 11
136.993748
 21
-139.343582
 31
0.0
  0
LINE
  5
3E7
100
AcDbEntity
  8
0
  6
CONTINUOUS
 62
     0
100
AcDbLine
 10
137.924149
 20
-138.413181
 30
0.0
 11
138.509496
 21
-137.827834
 31
0.0
  0
LINE
  5
3E8
100
AcDbEntity
  8
0
  6
CONTINUOUS
 62
     0
100
AcDbLine
 10
134.86837
 20
-141.327539
 30
0.0
 11
135.531889
 21
-140.66402
 31
0.0
  0
LINE
  5
3E9
100
AcDbEntity
  8
0
  6
CONTINUOUS
 62
     0
100
AcDbLine
 10
136.34232
 20
-139.853589
 30
0.0
 11
136.852326
 21
-139.343582
 31
0.0
  0
LINE
  5
3EA
100
AcDbEntity
  8
0
  6
CONTINUOUS
 62
     0
100
AcDbLine
 10
137.924149
 20
-138.271759
 30
0.0
 11
138.436119
 21
-137.75979
 31
0.0
  0
LINE
  5
3EB
100
AcDbEntity
  8
0
  6
CONTINUOUS
 62
     0
100
AcDbLine
 10
134.859955
 20
-141.194533
 30
0.0
 11
135.531889
 21
-140.522598
 31
0.0
  0
LINE
  5
3EC
100
AcDbEntity
  8
0
  6
CONTINUOUS
 62
     0
100
AcDbLine
 10
136.200898
 20
-139.853589
 30
0.0
 11
136.710905
 21
-139.343582
 31
0.0
  0
LINE
  5
3ED
100
AcDbEntity
  8
0
  6
CONTINUOUS
 62
     0
100
AcDbLine
 10
137.87315
 20
-138.181338
 30
0.0
 11
138.343992
 21
-137.710496
 31
0.0
  0
LINE
  5
3EE
100
AcDbEntity
  8
0
  6
CONTINUOUS
 62
     0
100
AcDbLine
 10
134.859955
 20
-141.053111
 30
0.0
 11
135.531889
 21
-140.381177
 31
0.0
  0
LINE
  5
3EF
100
AcDbEntity
  8
0
  6
CONTINUOUS
 62
     0
100
AcDbLine
 10
136.059477
 20
-139.853589
 30
0.0
 11
136.569484
 21
-139.343582
 31
0.0
  0
LINE
  5
3F0
100
AcDbEntity
  8
0
  6
CONTINUOUS
 62
     0
100
AcDbLine
 10
137.744556
 20
-138.16851
 30
0.0
 11
138.227504
 21
-137.685562
 31
0.0
  0
LINE
  5
3F1
100
AcDbEntity
  8
0
  6
CONTINUOUS
 62
     0
100
AcDbLine
 10
134.859955
 20
-140.91169
 30
0.0
 11
135.531889
 21
-140.239756
 31
0.0
  0
LINE
  5
3F2
100
AcDbEntity
  8
0
  6
CONTINUOUS
 62
     0
100
AcDbLine
 10
135.918056
 20
-139.853589
 30
0.0
 11
136.428062
 21
-139.343582
 31
0.0
  0
LINE
  5
3F3
100
AcDbEntity
  8
0
  6
CONTINUOUS
 62
     0
100
AcDbLine
 10
137.603135
 20
-138.16851
 30
0.0
 11
138.086836
 21
-137.684809
 31
0.0
  0
LINE
  5
3F4
100
AcDbEntity
  8
0
  6
CONTINUOUS
 62
     0
100
AcDbLine
 10
134.859955
 20
-140.770268
 30
0.0
 11
135.531889
 21
-140.098334
 31
0.0
  0
LINE
  5
3F5
100
AcDbEntity
  8
0
  6
CONTINUOUS
 62
     0
100
AcDbLine
 10
135.776634
 20
-139.853589
 30
0.0
 11
136.286641
 21
-139.343582
 31
0.0
  0
LINE
  5
3F6
100
AcDbEntity
  8
0
  6
CONTINUOUS
 62
     0
100
AcDbLine
 10
137.461714
 20
-138.16851
 30
0.0
 11
137.945415
 21
-137.684809
 31
0.0
  0
LINE
  5
3F7
100
AcDbEntity
  8
0
  6
CONTINUOUS
 62
     0
100
AcDbLine
 10
134.859955
 20
-140.628847
 30
0.0
 11
135.531889
 21
-139.956913
 31
0.0
  0
LINE
  5
3F8
100
AcDbEntity
  8
0
  6
CONTINUOUS
 62
     0
100
AcDbLine
 10
135.635213
 20
-139.853589
 30
0.0
 11
136.145219
 21
-139.343582
 31
0.0
  0
LINE
  5
3F9
100
AcDbEntity
  8
0
  6
CONTINUOUS
 62
     0
100
AcDbLine
 10
137.320292
 20
-138.16851
 30
0.0
 11
137.803993
 21
-137.684809
 31
0.0
  0
LINE
  5
3FA
100
AcDbEntity
  8
0
  6
CONTINUOUS
 62
     0
100
AcDbLine
 10
134.859955
 20
-140.487426
 30
0.0
 11
136.003798
 21
-139.343582
 31
0.0
  0
LINE
  5
3FB
100
AcDbEntity
  8
0
  6
CONTINUOUS
 62
     0
100
AcDbLine
 10
137.178871
 20
-138.16851
 30
0.0
 11
137.662572
 21
-137.684809
 31
0.0
  0
LINE
  5
3FC
100
AcDbEntity
  8
0
  6
CONTINUOUS
 62
     0
100
AcDbLine
 10
134.859955
 20
-140.346004
 30
0.0
 11
135.862377
 21
-139.343582
 31
0.0
  0
LINE
  5
3FD
100
AcDbEntity
  8
0
  6
CONTINUOUS
 62
     0
100
AcDbLine
 10
137.037449
 20
-138.16851
 30
0.0
 11
137.521151
 21
-137.684809
 31
0.0
  0
LINE
  5
3FE
100
AcDbEntity
  8
0
  6
CONTINUOUS
 62
     0
100
AcDbLine
 10
134.859955
 20
-140.204583
 30
0.0
 11
135.720955
 21
-139.343582
 31
0.0
  0
LINE
  5
3FF
100
AcDbEntity
  8
0
  6
CONTINUOUS
 62
     0
100
AcDbLine
 10
136.896028
 20
-138.16851
 30
0.0
 11
137.379729
 21
-137.684809
 31
0.0
  0
LINE
  5
400
100
AcDbEntity
  8
0
  6
CONTINUOUS
 62
     0
100
AcDbLine
 10
134.859955
 20
-140.063162
 30
0.0
 11
135.579534
 21
-139.343582
 31
0.0
  0
LINE
  5
401
100
AcDbEntity
  8
0
  6
CONTINUOUS
 62
     0
100
AcDbLine
 10
136.754607
 20
-138.16851
 30
0.0
 11
137.238308
 21
-137.684809
 31
0.0
  0
LINE
  5
402
100
AcDbEntity
  8
0
  6
CONTINUOUS
 62
     0
100
AcDbLine
 10
134.859955
 20
-139.92174
 30
0.0
 11
135.531889
 21
-139.249806
 31
0.0
  0
LINE
  5
403
100
AcDbEntity
  8
0
  6
CONTINUOUS
 62
     0
100
AcDbLine
 10
136.613185
 20
-138.16851
 30
0.0
 11
137.096887
 21
-137.684809
 31
0.0
  0
LINE
  5
404
100
AcDbEntity
  8
0
  6
CONTINUOUS
 62
     0
100
AcDbLine
 10
134.859955
 20
-139.780319
 30
0.0
 11
135.531889
 21
-139.108385
 31
0.0
  0
LINE
  5
405
100
AcDbEntity
  8
0
  6
CONTINUOUS
 62
     0
100
AcDbLine
 10
136.471764
 20
-138.16851
 30
0.0
 11
136.955465
 21
-137.684809
 31
0.0
  0
LINE
  5
406
100
AcDbEntity
  8
0
  6
CONTINUOUS
 62
     0
100
AcDbLine
 10
134.859955
 20
-139.638898
 30
0.0
 11
135.531889
 21
-138.966964
 31
0.0
  0
LINE
  5
407
100
AcDbEntity
  8
0
  6
CONTINUOUS
 62
     0
100
AcDbLine
 10
136.330343
 20
-138.16851
 30
0.0
 11
136.814044
 21
-137.684809
 31
0.0
  0
LINE
  5
408
100
AcDbEntity
  8
0
  6
CONTINUOUS
 62
     0
100
AcDbLine
 10
134.859955
 20
-139.497476
 30
0.0
 11
135.531889
 21
-138.825542
 31
0.0
  0
LINE
  5
409
100
AcDbEntity
  8
0
  6
CONTINUOUS
 62
     0
100
AcDbLine
 10
136.188921
 20
-138.16851
 30
0.0
 11
136.672622
 21
-137.684809
 31
0.0
  0
LINE
  5
40A
100
AcDbEntity
  8
0
  6
CONTINUOUS
 62
     0
100
AcDbLine
 10
134.859955
 20
-139.356055
 30
0.0
 11
135.531889
 21
-138.684121
 31
0.0
  0
LINE
  5
40B
100
AcDbEntity
  8
0
  6
CONTINUOUS
 62
     0
100
AcDbLine
 10
136.0475
 20
-138.16851
 30
0.0
 11
136.531201
 21
-137.684809
 31
0.0
  0
LINE
  5
40C
100
AcDbEntity
  8
0
  6
CONTINUOUS
 62
     0
100
AcDbLine
 10
134.859955
 20
-139.214634
 30
0.0
 11
135.531889
 21
-138.542699
 31
0.0
  0
LINE
  5
40D
100
AcDbEntity
  8
0
  6
CONTINUOUS
 62
     0
100
AcDbLine
 10
135.906079
 20
-138.16851
 30
0.0
 11
136.38978
 21
-137.684809
 31
0.0
  0
LINE
  5
40E
100
AcDbEntity
  8
0
  6
CONTINUOUS
 62
     0
100
AcDbLine
 10
134.859955
 20
-139.073212
 30
0.0
 11
135.531889
 21
-138.401278
 31
0.0
  0
LINE
  5
40F
100
AcDbEntity
  8
0
  6
CONTINUOUS
 62
     0
100
AcDbLine
 10
135.764657
 20
-138.16851
 30
0.0
 11
136.248358
 21
-137.684809
 31
0.0
  0
LINE
  5
410
100
AcDbEntity
  8
0
  6
CONTINUOUS
 62
     0
100
AcDbLine
 10
134.859955
 20
-138.931791
 30
0.0
 11
135.532301
 21
-138.259445
 31
0.0
  0
LINE
  5
411
100
AcDbEntity
  8
0
  6
CONTINUOUS
 62
     0
100
AcDbLine
 10
135.622824
 20
-138.168921
 30
0.0
 11
136.106937
 21
-137.684809
 31
0.0
  0
LINE
  5
412
100
AcDbEntity
  8
0
  6
CONTINUOUS
 62
     0
100
AcDbLine
 10
134.859955
 20
-138.790369
 30
0.0
 11
135.965516
 21
-137.684809
 31
0.0
  0
LINE
  5
413
100
AcDbEntity
  8
0
  6
CONTINUOUS
 62
     0
100
AcDbLine
 10
134.859955
 20
-138.648948
 30
0.0
 11
135.824094
 21
-137.684809
 31
0.0
  0
LINE
  5
414
100
AcDbEntity
  8
0
  6
CONTINUOUS
 62
     0
100
AcDbLine
 10
134.859955
 20
-138.507527
 30
0.0
 11
135.682673
 21
-137.684809
 31
0.0
  0
LINE
  5
415
100
AcDbEntity
  8
0
  6
CONTINUOUS
 62
     0
100
AcDbLine
 10
134.859955
 20
-138.366105
 30
0.0
 11
135.541252
 21
-137.684809
 31
0.0
  0
LINE
  5
416
100
AcDbEntity
  8
0
  6
CONTINUOUS
 62
     0
100
AcDbLine
 10
134.859955
 20
-138.224684
 30
0.0
 11
135.39983
 21
-137.684809
 31
0.0
  0
LINE
  5
417
100
AcDbEntity
  8
0
  6
CONTINUOUS
 62
     0
100
AcDbLine
 10
134.859958
 20
-138.08326
 30
0.0
 11
135.258406
 21
-137.684812
 31
0.0
  0
LINE
  5
418
100
AcDbEntity
  8
0
  6
CONTINUOUS
 62
     0
100
AcDbLine
 10
134.90912
 20
-137.892676
 30
0.0
 11
135.067822
 21
-137.733974
 31
0.0
  0
ENDBLK
  5
419
100
AcDbEntity
  8
0
  6
ByBlock
 62
     0
100
AcDbBlockEnd
  0
BLOCK
  5
41C
100
AcDbEntity
  8
0
  6
ByBlock
 62
     0
100
AcDbBlockBegin
  2
*X4
 70
     1
 10
0.0
 20
0.0
 30
0.0
  3
*X4
  1

  0
LINE
  5
41D
100
AcDbEntity
  8
0
  6
CONTINUOUS
 62
     0
100
AcDbLine
 10
143.200053
 20
-141.622558
 30
0.0
 11
143.421997
 21
-141.400615
 31
0.0
  0
LINE
  5
41E
100
AcDbEntity
  8
0
  6
CONTINUOUS
 62
     0
100
AcDbLine
 10
143.065491
 20
-141.615699
 30
0.0
 11
143.417057
 21
-141.264133
 31
0.0
  0
LINE
  5
41F
100
AcDbEntity
  8
0
  6
CONTINUOUS
 62
     0
100
AcDbLine
 10
142.968476
 20
-141.571293
 30
0.0
 11
143.369309
 21
-141.17046
 31
0.0
  0
LINE
  5
420
100
AcDbEntity
  8
0
  6
CONTINUOUS
 62
     0
100
AcDbLine
 10
142.87467
 20
-141.523677
 30
0.0
 11
143.294727
 21
-141.10362
 31
0.0
  0
LINE
  5
421
100
AcDbEntity
  8
0
  6
CONTINUOUS
 62
     0
100
AcDbLine
 10
142.780865
 20
-141.476061
 30
0.0
 11
143.199696
 21
-141.05723
 31
0.0
  0
LINE
  5
422
100
AcDbEntity
  8
0
  6
CONTINUOUS
 62
     0
100
AcDbLine
 10
142.68706
 20
-141.428445
 30
0.0
 11
143.1033
 21
-141.012204
 31
0.0
  0
LINE
  5
423
100
AcDbEntity
  8
0
  6
CONTINUOUS
 62
     0
100
AcDbLine
 10
142.593254
 20
-141.380829
 30
0.0
 11
143.006904
 21
-140.967179
 31
0.0
  0
LINE
  5
424
100
AcDbEntity
  8
0
  6
CONTINUOUS
 62
     0
100
AcDbLine
 10
142.499449
 20
-141.333213
 30
0.0
 11
142.910508
 21
-140.922154
 31
0.0
  0
LINE
  5
425
100
AcDbEntity
  8
0
  6
CONTINUOUS
 62
     0
100
AcDbLine
 10
142.405644
 20
-141.285597
 30
0.0
 11
142.814112
 21
-140.877129
 31
0.0
  0
LINE
  5
426
100
AcDbEntity
  8
0
  6
CONTINUOUS
 62
     0
100
AcDbLine
 10
142.311838
 20
-141.237981
 30
0.0
 11
142.717715
 21
-140.832104
 31
0.0
  0
LINE
  5
427
100
AcDbEntity
  8
0
  6
CONTINUOUS
 62
     0
100
AcDbLine
 10
142.227104
 20
-141.181294
 30
0.0
 11
142.621319
 21
-140.787079
 31
0.0
  0
LINE
  5
428
100
AcDbEntity
  8
0
  6
CONTINUOUS
 62
     0
100
AcDbLine
 10
143.087635
 20
-140.320762
 30
0.0
 11
143.189611
 21
-140.218787
 31
0.0
  0
LINE
  5
429
100
AcDbEntity
  8
0
  6
CONTINUOUS
 62
     0
100
AcDbLine
 10
142.147763
 20
-141.119214
 30
0.0
 11
142.531094
 21
-140.735882
 31
0.0
  0
LINE
  5
42A
100
AcDbEntity
  8
0
  6
CONTINUOUS
 62
     0
100
AcDbLine
 10
142.900393
 20
-140.366584
 30
0.0
 11
143.235433
 21
-140.031544
 31
0.0
  0
LINE
  5
42B
100
AcDbEntity
  8
0
  6
CONTINUOUS
 62
     0
100
AcDbLine
 10
141.32248
 20
-141.803075
 30
0.0
 11
141.600543
 21
-141.525012
 31
0.0
  0
LINE
  5
42C
100
AcDbEntity
  8
0
  6
CONTINUOUS
 62
     0
100
AcDbLine
 10
142.068421
 20
-141.057134
 30
0.0
 11
142.445439
 21
-140.680116
 31
0.0
  0
LINE
  5
42D
100
AcDbEntity
  8
0
  6
CONTINUOUS
 62
     0
100
AcDbLine
 10
142.758971
 20
-140.366584
 30
0.0
 11
143.235433
 21
-139.890122
 31
0.0
  0
LINE
  5
42E
100
AcDbEntity
  8
0
  6
CONTINUOUS
 62
     0
100
AcDbLine
 10
141.181502
 20
-141.802632
 30
0.0
 11
141.600543
 21
-141.383591
 31
0.0
  0
LINE
  5
42F
100
AcDbEntity
  8
0
  6
CONTINUOUS
 62
     0
100
AcDbLine
 10
141.98908
 20
-140.995054
 30
0.0
 11
142.359784
 21
-140.624349
 31
0.0
  0
LINE
  5
430
100
AcDbEntity
  8
0
  6
CONTINUOUS
 62
     0
100
AcDbLine
 10
142.61755
 20
-140.366584
 30
0.0
 11
143.235433
 21
-139.748701
 31
0.0
  0
LINE
  5
431
100
AcDbEntity
  8
0
  6
CONTINUOUS
 62
     0
100
AcDbLine
 10
141.071664
 20
-141.771049
 30
0.0
 11
141.600543
 21
-141.242169
 31
0.0
  0
LINE
  5
432
100
AcDbEntity
  8
0
  6
CONTINUOUS
 62
     0
100
AcDbLine
 10
141.909738
 20
-140.932974
 30
0.0
 11
142.27413
 21
-140.568583
 31
0.0
  0
LINE
  5
433
100
AcDbEntity
  8
0
  6
CONTINUOUS
 62
     0
100
AcDbLine
 10
142.476128
 20
-140.366584
 30
0.0
 11
143.235433
 21
-139.60728
 31
0.0
  0
LINE
  5
434
100
AcDbEntity
  8
0
  6
CONTINUOUS
 62
     0
100
AcDbLine
 10
140.994607
 20
-141.706684
 30
0.0
 11
141.600543
 21
-141.100748
 31
0.0
  0
LINE
  5
435
100
AcDbEntity
  8
0
  6
CONTINUOUS
 62
     0
100
AcDbLine
 10
141.830397
 20
-140.870894
 30
0.0
 11
142.188475
 21
-140.512816
 31
0.0
  0
LINE
  5
436
100
AcDbEntity
  8
0
  6
CONTINUOUS
 62
     0
100
AcDbLine
 10
142.334707
 20
-140.366584
 30
0.0
 11
143.235433
 21
-139.465858
 31
0.0
  0
LINE
  5
437
100
AcDbEntity
  8
0
  6
CONTINUOUS
 62
     0
100
AcDbLine
 10
140.94639
 20
-141.61348
 30
0.0
 11
141.600543
 21
-140.959327
 31
0.0
  0
LINE
  5
438
100
AcDbEntity
  8
0
  6
CONTINUOUS
 62
     0
100
AcDbLine
 10
141.751055
 20
-140.808814
 30
0.0
 11
142.10282
 21
-140.45705
 31
0.0
  0
LINE
  5
439
100
AcDbEntity
  8
0
  6
CONTINUOUS
 62
     0
100
AcDbLine
 10
142.193286
 20
-140.366584
 30
0.0
 11
143.235433
 21
-139.324437
 31
0.0
  0
LINE
  5
43A
100
AcDbEntity
  8
0
  6
CONTINUOUS
 62
     0
100
AcDbLine
 10
140.936677
 20
-141.481772
 30
0.0
 11
141.600543
 21
-140.817905
 31
0.0
  0
LINE
  5
43B
100
AcDbEntity
  8
0
  6
CONTINUOUS
 62
     0
100
AcDbLine
 10
141.671714
 20
-140.746734
 30
0.0
 11
142.017165
 21
-140.401283
 31
0.0
  0
LINE
  5
43C
100
AcDbEntity
  8
0
  6
CONTINUOUS
 62
     0
100
AcDbLine
 10
142.051864
 20
-140.366584
 30
0.0
 11
142.483893
 21
-139.934555
 31
0.0
  0
LINE
  5
43D
100
AcDbEntity
  8
0
  6
CONTINUOUS
 62
     0
100
AcDbLine
 10
142.580817
 20
-139.837631
 30
0.0
 11
143.235433
 21
-139.183016
 31
0.0
  0
LINE
  5
43E
100
AcDbEntity
  8
0
  6
CONTINUOUS
 62
     0
100
AcDbLine
 10
140.936677
 20
-141.34035
 30
0.0
 11
142.342472
 21
-139.934555
 31
0.0
  0
LINE
  5
43F
100
AcDbEntity
  8
0
  6
CONTINUOUS
 62
     0
100
AcDbLine
 10
142.580817
 20
-139.69621
 30
0.0
 11
143.235433
 21
-139.041594
 31
0.0
  0
LINE
  5
440
100
AcDbEntity
  8
0
  6
CONTINUOUS
 62
     0
100
AcDbLine
 10
140.936677
 20
-141.198929
 30
0.0
 11
142.20105
 21
-139.934555
 31
0.0
  0
LINE
  5
441
100
AcDbEntity
  8
0
  6
CONTINUOUS
 62
     0
100
AcDbLine
 10
142.49205
 20
-139.643555
 30
0.0
 11
143.235433
 21
-138.900173
 31
0.0
  0
LINE
  5
442
100
AcDbEntity
  8
0
  6
CONTINUOUS
 62
     0
100
AcDbLine
 10
140.936677
 20
-141.057508
 30
0.0
 11
142.059629
 21
-139.934555
 31
0.0
  0
LINE
  5
443
100
AcDbEntity
  8
0
  6
CONTINUOUS
 62
     0
100
AcDbLine
 10
142.350629
 20
-139.643555
 30
0.0
 11
143.218489
 21
-138.775695
 31
0.0
  0
LINE
  5
444
100
AcDbEntity
  8
0
  6
CONTINUOUS
 62
     0
100
AcDbLine
 10
140.936677
 20
-140.916086
 30
0.0
 11
141.918208
 21
-139.934555
 31
0.0
  0
LINE
  5
445
100
AcDbEntity
  8
0
  6
CONTINUOUS
 62
     0
100
AcDbLine
 10
142.209208
 20
-139.643555
 30
0.0
 11
142.577902
 21
-139.274861
 31
0.0
  0
LINE
  5
446
100
AcDbEntity
  8
0
  6
CONTINUOUS
 62
     0
100
AcDbLine
 10
142.580817
 20
-139.271946
 30
0.0
 11
143.168449
 21
-138.684314
 31
0.0
  0
LINE
  5
447
100
AcDbEntity
  8
0
  6
CONTINUOUS
 62
     0
100
AcDbLine
 10
140.936677
 20
-140.774665
 30
0.0
 11
141.776786
 21
-139.934555
 31
0.0
  0
LINE
  5
448
100
AcDbEntity
  8
0
  6
CONTINUOUS
 62
     0
100
AcDbLine
 10
142.067786
 20
-139.643555
 30
0.0
 11
142.43648
 21
-139.274861
 31
0.0
  0
LINE
  5
449
100
AcDbEntity
  8
0
  6
CONTINUOUS
 62
     0
100
AcDbLine
 10
142.580817
 20
-139.130525
 30
0.0
 11
143.09444
 21
-138.616901
 31
0.0
  0
LINE
  5
44A
100
AcDbEntity
  8
0
  6
CONTINUOUS
 62
     0
100
AcDbLine
 10
140.651121
 20
-140.9188
 30
0.0
 11
141.635365
 21
-139.934555
 31
0.0
  0
LINE
  5
44B
100
AcDbEntity
  8
0
  6
CONTINUOUS
 62
     0
100
AcDbLine
 10
141.926365
 20
-139.643555
 30
0.0
 11
142.295059
 21
-139.274861
 31
0.0
  0
LINE
  5
44C
100
AcDbEntity
  8
0
  6
CONTINUOUS
 62
     0
100
AcDbLine
 10
142.571122
 20
-138.998799
 30
0.0
 11
142.995191
 21
-138.574729
 31
0.0
  0
LINE
  5
44D
100
AcDbEntity
  8
0
  6
CONTINUOUS
 62
     0
100
AcDbLine
 10
140.15108
 20
-141.277419
 30
0.0
 11
141.600539
 21
-139.82796
 31
0.0
  0
LINE
  5
44E
100
AcDbEntity
  8
0
  6
CONTINUOUS
 62
     0
100
AcDbLine
 10
141.784944
 20
-139.643555
 30
0.0
 11
142.153638
 21
-139.274861
 31
0.0
  0
LINE
  5
44F
100
AcDbEntity
  8
0
  6
CONTINUOUS
 62
     0
100
AcDbLine
 10
142.4297
 20
-138.998799
 30
0.0
 11
142.86172
 21
-138.566779
 31
0.0
  0
LINE
  5
450
100
AcDbEntity
  8
0
  6
CONTINUOUS
 62
     0
100
AcDbLine
 10
143.147349
 20
-138.28115
 30
0.0
 11
143.417218
 21
-138.011281
 31
0.0
  0
LINE
  5
451
100
AcDbEntity
  8
0
  6
CONTINUOUS
 62
     0
100
AcDbLine
 10
139.864522
 20
-141.422555
 30
0.0
 11
141.600539
 21
-139.686538
 31
0.0
  0
LINE
  5
452
100
AcDbEntity
  8
0
  6
CONTINUOUS
 62
     0
100
AcDbLine
 10
141.643522
 20
-139.643555
 30
0.0
 11
142.012216
 21
-139.274861
 31
0.0
  0
LINE
  5
453
100
AcDbEntity
  8
0
  6
CONTINUOUS
 62
     0
100
AcDbLine
 10
142.288279
 20
-138.998799
 30
0.0
 11
142.720299
 21
-138.566779
 31
0.0
  0
LINE
  5
454
100
AcDbEntity
  8
0
  6
CONTINUOUS
 62
     0
100
AcDbLine
 10
143.005928
 20
-138.28115
 30
0.0
 11
143.374798
 21
-137.912279
 31
0.0
  0
LINE
  5
455
100
AcDbEntity
  8
0
  6
CONTINUOUS
 62
     0
100
AcDbLine
 10
139.577965
 20
-141.567691
 30
0.0
 11
141.870795
 21
-139.274861
 31
0.0
  0
LINE
  5
456
100
AcDbEntity
  8
0
  6
CONTINUOUS
 62
     0
100
AcDbLine
 10
142.146858
 20
-138.998799
 30
0.0
 11
142.578877
 21
-138.566779
 31
0.0
  0
LINE
  5
457
100
AcDbEntity
  8
0
  6
CONTINUOUS
 62
     0
100
AcDbLine
 10
142.864506
 20
-138.28115
 30
0.0
 11
143.298737
 21
-137.846919
 31
0.0
  0
LINE
  5
458
100
AcDbEntity
  8
0
  6
CONTINUOUS
 62
     0
100
AcDbLine
 10
139.378123
 20
-141.626111
 30
0.0
 11
141.729373
 21
-139.274861
 31
0.0
  0
LINE
  5
459
100
AcDbEntity
  8
0
  6
CONTINUOUS
 62
     0
100
AcDbLine
 10
142.005436
 20
-138.998799
 30
0.0
 11
142.437456
 21
-138.566779
 31
0.0
  0
LINE
  5
45A
100
AcDbEntity
  8
0
  6
CONTINUOUS
 62
     0
100
AcDbLine
 10
142.723085
 20
-138.28115
 30
0.0
 11
143.184389
 21
-137.819845
 31
0.0
  0
LINE
  5
45B
100
AcDbEntity
  8
0
  6
CONTINUOUS
 62
     0
100
AcDbLine
 10
139.267041
 20
-141.595773
 30
0.0
 11
140.45263
 21
-140.410183
 31
0.0
  0
LINE
  5
45C
100
AcDbEntity
  8
0
  6
CONTINUOUS
 62
     0
100
AcDbLine
 10
140.49623
 20
-140.366584
 30
0.0
 11
140.928258
 21
-139.934555
 31
0.0
  0
LINE
  5
45D
100
AcDbEntity
  8
0
  6
CONTINUOUS
 62
     0
100
AcDbLine
 10
140.936676
 20
-139.926137
 30
0.0
 11
141.600539
 21
-139.262274
 31
0.0
  0
LINE
  5
45E
100
AcDbEntity
  8
0
  6
CONTINUOUS
 62
     0
100
AcDbLine
 10
141.864015
 20
-138.998799
 30
0.0
 11
142.296035
 21
-138.566779
 31
0.0
  0
LINE
  5
45F
100
AcDbEntity
  8
0
  6
CONTINUOUS
 62
     0
100
AcDbLine
 10
142.581663
 20
-138.28115
 30
0.0
 11
143.042968
 21
-137.819845
 31
0.0
  0
LINE
  5
460
100
AcDbEntity
  8
0
  6
CONTINUOUS
 62
     0
100
AcDbLine
 10
139.187044
 20
-141.534349
 30
0.0
 11
139.984537
 21
-140.736856
 31
0.0
  0
LINE
  5
461
100
AcDbEntity
  8
0
  6
CONTINUOUS
 62
     0
100
AcDbLine
 10
140.354808
 20
-140.366584
 30
0.0
 11
140.786837
 21
-139.934555
 31
0.0
  0
LINE
  5
462
100
AcDbEntity
  8
0
  6
CONTINUOUS
 62
     0
100
AcDbLine
 10
140.936676
 20
-139.784716
 30
0.0
 11
141.600539
 21
-139.120853
 31
0.0
  0
LINE
  5
463
100
AcDbEntity
  8
0
  6
CONTINUOUS
 62
     0
100
AcDbLine
 10
141.722594
 20
-138.998799
 30
0.0
 11
142.154613
 21
-138.566779
 31
0.0
  0
LINE
  5
464
100
AcDbEntity
  8
0
  6
CONTINUOUS
 62
     0
100
AcDbLine
 10
142.440242
 20
-138.28115
 30
0.0
 11
142.901547
 21
-137.819845
 31
0.0
  0
LINE
  5
465
100
AcDbEntity
  8
0
  6
CONTINUOUS
 62
     0
100
AcDbLine
 10
139.132897
 20
-141.447073
 30
0.0
 11
139.693868
 21
-140.886103
 31
0.0
  0
LINE
  5
466
100
AcDbEntity
  8
0
  6
CONTINUOUS
 62
     0
100
AcDbLine
 10
140.213387
 20
-140.366584
 30
0.0
 11
140.645416
 21
-139.934555
 31
0.0
  0
LINE
  5
467
100
AcDbEntity
  8
0
  6
CONTINUOUS
 62
     0
100
AcDbLine
 10
140.936415
 20
-139.643555
 30
0.0
 11
142.013192
 21
-138.566779
 31
0.0
  0
LINE
  5
468
100
AcDbEntity
  8
0
  6
CONTINUOUS
 62
     0
100
AcDbLine
 10
142.298821
 20
-138.28115
 30
0.0
 11
142.760125
 21
-137.819845
 31
0.0
  0
LINE
  5
469
100
AcDbEntity
  8
0
  6
CONTINUOUS
 62
     0
100
AcDbLine
 10
139.111733
 20
-141.326817
 30
0.0
 11
139.424685
 21
-141.013864
 31
0.0
  0
LINE
  5
46A
100
AcDbEntity
  8
0
  6
CONTINUOUS
 62
     0
100
AcDbLine
 10
140.071965
 20
-140.366584
 30
0.0
 11
140.503994
 21
-139.934555
 31
0.0
  0
LINE
  5
46B
100
AcDbEntity
  8
0
  6
CONTINUOUS
 62
     0
100
AcDbLine
 10
140.794994
 20
-139.643555
 30
0.0
 11
141.871771
 21
-138.566779
 31
0.0
  0
LINE
  5
46C
100
AcDbEntity
  8
0
  6
CONTINUOUS
 62
     0
100
AcDbLine
 10
142.157399
 20
-138.28115
 30
0.0
 11
142.618704
 21
-137.819845
 31
0.0
  0
LINE
  5
46D
100
AcDbEntity
  8
0
  6
CONTINUOUS
 62
     0
100
AcDbLine
 10
139.930544
 20
-140.366584
 30
0.0
 11
140.362573
 21
-139.934555
 31
0.0
  0
LINE
  5
46E
100
AcDbEntity
  8
0
  6
CONTINUOUS
 62
     0
100
AcDbLine
 10
140.653573
 20
-139.643555
 30
0.0
 11
141.730349
 21
-138.566779
 31
0.0
  0
LINE
  5
46F
100
AcDbEntity
  8
0
  6
CONTINUOUS
 62
     0
100
AcDbLine
 10
142.015978
 20
-138.28115
 30
0.0
 11
142.477283
 21
-137.819845
 31
0.0
  0
LINE
  5
470
100
AcDbEntity
  8
0
  6
CONTINUOUS
 62
     0
100
AcDbLine
 10
139.789123
 20
-140.366584
 30
0.0
 11
140.221152
 21
-139.934555
 31
0.0
  0
LINE
  5
471
100
AcDbEntity
  8
0
  6
CONTINUOUS
 62
     0
100
AcDbLine
 10
140.512151
 20
-139.643555
 30
0.0
 11
140.880845
 21
-139.274861
 31
0.0
  0
LINE
  5
472
100
AcDbEntity
  8
0
  6
CONTINUOUS
 62
     0
100
AcDbLine
 10
140.936676
 20
-139.21903
 30
0.0
 11
141.600539
 21
-138.555167
 31
0.0
  0
LINE
  5
473
100
AcDbEntity
  8
0
  6
CONTINUOUS
 62
     0
100
AcDbLine
 10
141.874557
 20
-138.28115
 30
0.0
 11
142.335861
 21
-137.819845
 31
0.0
  0
LINE
  5
474
100
AcDbEntity
  8
0
  6
CONTINUOUS
 62
     0
100
AcDbLine
 10
139.647701
 20
-140.366584
 30
0.0
 11
140.07973
 21
-139.934555
 31
0.0
  0
LINE
  5
475
100
AcDbEntity
  8
0
  6
CONTINUOUS
 62
     0
100
AcDbLine
 10
140.37073
 20
-139.643555
 30
0.0
 11
140.739424
 21
-139.274861
 31
0.0
  0
LINE
  5
476
100
AcDbEntity
  8
0
  6
CONTINUOUS
 62
     0
100
AcDbLine
 10
140.936676
 20
-139.077609
 30
0.0
 11
141.600539
 21
-138.413746
 31
0.0
  0
LINE
  5
477
100
AcDbEntity
  8
0
  6
CONTINUOUS
 62
     0
100
AcDbLine
 10
141.733135
 20
-138.28115
 30
0.0
 11
142.19444
 21
-137.819845
 31
0.0
  0
LINE
  5
478
100
AcDbEntity
  8
0
  6
CONTINUOUS
 62
     0
100
AcDbLine
 10
139.52511
 20
-140.347754
 30
0.0
 11
139.976121
 21
-139.896743
 31
0.0
  0
LINE
  5
479
100
AcDbEntity
  8
0
  6
CONTINUOUS
 62
     0
100
AcDbLine
 10
140.229309
 20
-139.643555
 30
0.0
 11
140.598003
 21
-139.274861
 31
0.0
  0
LINE
  5
47A
100
AcDbEntity
  8
0
  6
CONTINUOUS
 62
     0
100
AcDbLine
 10
140.874065
 20
-138.998799
 30
0.0
 11
142.053019
 21
-137.819845
 31
0.0
  0
LINE
  5
47B
100
AcDbEntity
  8
0
  6
CONTINUOUS
 62
     0
100
AcDbLine
 10
139.435053
 20
-140.296389
 30
0.0
 11
139.976121
 21
-139.755321
 31
0.0
  0
LINE
  5
47C
100
AcDbEntity
  8
0
  6
CONTINUOUS
 62
     0
100
AcDbLine
 10
140.087887
 20
-139.643555
 30
0.0
 11
140.456581
 21
-139.274861
 31
0.0
  0
LINE
  5
47D
100
AcDbEntity
  8
0
  6
CONTINUOUS
 62
     0
100
AcDbLine
 10
140.732644
 20
-138.998799
 30
0.0
 11
141.911597
 21
-137.819845
 31
0.0
  0
LINE
  5
47E
100
AcDbEntity
  8
0
  6
CONTINUOUS
 62
     0
100
AcDbLine
 10
139.368823
 20
-140.221198
 30
0.0
 11
140.31516
 21
-139.274861
 31
0.0
  0
LINE
  5
47F
100
AcDbEntity
  8
0
  6
CONTINUOUS
 62
     0
100
AcDbLine
 10
140.591223
 20
-138.998799
 30
0.0
 11
141.770176
 21
-137.819845
 31
0.0
  0
LINE
  5
480
100
AcDbEntity
  8
0
  6
CONTINUOUS
 62
     0
100
AcDbLine
 10
139.328155
 20
-140.120445
 30
0.0
 11
140.173739
 21
-139.274861
 31
0.0
  0
LINE
  5
481
100
AcDbEntity
  8
0
  6
CONTINUOUS
 62
     0
100
AcDbLine
 10
140.449801
 20
-138.998799
 30
0.0
 11
140.881821
 21
-138.566779
 31
0.0
  0
LINE
  5
482
100
AcDbEntity
  8
0
  6
CONTINUOUS
 62
     0
100
AcDbLine
 10
140.936676
 20
-138.511924
 30
0.0
 11
141.628755
 21
-137.819845
 31
0.0
  0
LINE
  5
483
100
AcDbEntity
  8
0
  6
CONTINUOUS
 62
     0
100
AcDbLine
 10
139.321506
 20
-139.985673
 30
0.0
 11
140.032317
 21
-139.274861
 31
0.0
  0
LINE
  5
484
100
AcDbEntity
  8
0
  6
CONTINUOUS
 62
     0
100
AcDbLine
 10
140.30838
 20
-138.998799
 30
0.0
 11
140.7404
 21
-138.566779
 31
0.0
  0
LINE
  5
485
100
AcDbEntity
  8
0
  6
CONTINUOUS
 62
     0
100
AcDbLine
 10
140.936676
 20
-138.370502
 30
0.0
 11
141.59984
 21
-137.707339
 31
0.0
  0
LINE
  5
486
100
AcDbEntity
  8
0
  6
CONTINUOUS
 62
     0
100
AcDbLine
 10
139.321506
 20
-139.844252
 30
0.0
 11
139.976121
 21
-139.189636
 31
0.0
  0
LINE
  5
487
100
AcDbEntity
  8
0
  6
CONTINUOUS
 62
     0
100
AcDbLine
 10
140.166959
 20
-138.998799
 30
0.0
 11
140.598978
 21
-138.566779
 31
0.0
  0
LINE
  5
488
100
AcDbEntity
  8
0
  6
CONTINUOUS
 62
     0
100
AcDbLine
 10
140.884607
 20
-138.28115
 30
0.0
 11
141.567033
 21
-137.598724
 31
0.0
  0
LINE
  5
489
100
AcDbEntity
  8
0
  6
CONTINUOUS
 62
     0
100
AcDbLine
 10
139.321506
 20
-139.70283
 30
0.0
 11
139.976121
 21
-139.048215
 31
0.0
  0
LINE
  5
48A
100
AcDbEntity
  8
0
  6
CONTINUOUS
 62
     0
100
AcDbLine
 10
140.025537
 20
-138.998799
 30
0.0
 11
140.457557
 21
-138.566779
 31
0.0
  0
LINE
  5
48B
100
AcDbEntity
  8
0
  6
CONTINUOUS
 62
     0
100
AcDbLine
 10
140.743186
 20
-138.28115
 30
0.0
 11
141.501849
 21
-137.522487
 31
0.0
  0
LINE
  5
48C
100
AcDbEntity
  8
0
  6
CONTINUOUS
 62
     0
100
AcDbLine
 10
139.321506
 20
-139.561409
 30
0.0
 11
140.316136
 21
-138.566779
 31
0.0
  0
LINE
  5
48D
100
AcDbEntity
  8
0
  6
CONTINUOUS
 62
     0
100
AcDbLine
 10
140.601764
 20
-138.28115
 30
0.0
 11
141.407695
 21
-137.47522
 31
0.0
  0
LINE
  5
48E
100
AcDbEntity
  8
0
  6
CONTINUOUS
 62
     0
100
AcDbLine
 10
139.321506
 20
-139.419988
 30
0.0
 11
140.174714
 21
-138.566779
 31
0.0
  0
LINE
  5
48F
100
AcDbEntity
  8
0
  6
CONTINUOUS
 62
     0
100
AcDbLine
 10
140.460343
 20
-138.28115
 30
0.0
 11
140.921648
 21
-137.819845
 31
0.0
  0
LINE
  5
490
100
AcDbEntity
  8
0
  6
CONTINUOUS
 62
     0
100
AcDbLine
 10
140.936676
 20
-137.804817
 30
0.0
 11
141.275096
 21
-137.466397
 31
0.0
  0
LINE
  5
491
100
AcDbEntity
  8
0
  6
CONTINUOUS
 62
     0
100
AcDbLine
 10
139.321506
 20
-139.278566
 30
0.0
 11
140.033293
 21
-138.566779
 31
0.0
  0
LINE
  5
492
100
AcDbEntity
  8
0
  6
CONTINUOUS
 62
     0
100
AcDbLine
 10
140.318922
 20
-138.28115
 30
0.0
 11
140.780226
 21
-137.819845
 31
0.0
  0
LINE
  5
493
100
AcDbEntity
  8
0
  6
CONTINUOUS
 62
     0
100
AcDbLine
 10
140.947326
 20
-137.652746
 30
0.0
 11
141.123024
 21
-137.477047
 31
0.0
  0
LINE
  5
494
100
AcDbEntity
  8
0
  6
CONTINUOUS
 62
     0
100
AcDbLine
 10
139.321506
 20
-139.137145
 30
0.0
 11
139.891872
 21
-138.566779
 31
0.0
  0
LINE
  5
495
100
AcDbEntity
  8
0
  6
CONTINUOUS
 62
     0
100
AcDbLine
 10
140.1775
 20
-138.28115
 30
0.0
 11
140.638805
 21
-137.819845
 31
0.0
  0
LINE
  5
496
100
AcDbEntity
  8
0
  6
CONTINUOUS
 62
     0
100
AcDbLine
 10
139.321506
 20
-138.995723
 30
0.0
 11
139.75045
 21
-138.566779
 31
0.0
  0
LINE
  5
497
100
AcDbEntity
  8
0
  6
CONTINUOUS
 62
     0
100
AcDbLine
 10
140.036079
 20
-138.28115
 30
0.0
 11
140.497384
 21
-137.819845
 31
0.0
  0
LINE
  5
498
100
AcDbEntity
  8
0
  6
CONTINUOUS
 62
     0
100
AcDbLine
 10
139.322387
 20
-138.853421
 30
0.0
 11
139.608148
 21
-138.56766
 31
0.0
  0
LINE
  5
499
100
AcDbEntity
  8
0
  6
CONTINUOUS
 62
     0
100
AcDbLine
 10
139.894658
 20
-138.28115
 30
0.0
 11
140.355962
 21
-137.819845
 31
0.0
  0
LINE
  5
49A
100
AcDbEntity
  8
0
  6
CONTINUOUS
 62
     0
100
AcDbLine
 10
139.753236
 20
-138.28115
 30
0.0
 11
140.214541
 21
-137.819845
 31
0.0
  0
LINE
  5
49B
100
AcDbEntity
  8
0
  6
CONTINUOUS
 62
     0
100
AcDbLine
 10
139.611815
 20
-138.28115
 30
0.0
 11
140.07312
 21
-137.819845
 31
0.0
  0
LINE
  5
49C
100
AcDbEntity
  8
0
  6
CONTINUOUS
 62
     0
100
AcDbLine
 10
139.470394
 20
-138.28115
 30
0.0
 11
139.931698
 21
-137.819845
 31
0.0
  0
LINE
  5
49D
100
AcDbEntity
  8
0
  6
CONTINUOUS
 62
     0
100
AcDbLine
 10
139.328972
 20
-138.28115
 30
0.0
 11
139.790277
 21
-137.819845
 31
0.0
  0
LINE
  5
49E
100
AcDbEntity
  8
0
  6
CONTINUOUS
 62
     0
100
AcDbLine
 10
139.216697
 20
-138.252004
 30
0.0
 11
139.648856
 21
-137.819845
 31
0.0
  0
LINE
  5
49F
100
AcDbEntity
  8
0
  6
CONTINUOUS
 62
     0
100
AcDbLine
 10
139.141953
 20
-138.185327
 30
0.0
 11
139.507434
 21
-137.819845
 31
0.0
  0
LINE
  5
4A0
100
AcDbEntity
  8
0
  6
CONTINUOUS
 62
     0
100
AcDbLine
 10
139.101211
 20
-138.084647
 30
0.0
 11
139.366013
 21
-137.819845
 31
0.0
  0
ENDBLK
  5
4A1
100
AcDbEntity
  8
0
  6
ByBlock
 62
     0
100
AcDbBlockEnd
  0
BLOCK
  5
4A4
100
AcDbEntity
  8
0
  6
ByBlock
 62
     0
100
AcDbBlockBegin
  2
*X5
 70
     1
 10
0.0
 20
0.0
 30
0.0
  3
*X5
  1

  0
LINE
  5
4A5
100
AcDbEntity
  8
0
  6
CONTINUOUS
 62
     0
100
AcDbLine
 10
147.882441
 20
-141.607075
 30
0.0
 11
148.100895
 21
-141.388621
 31
0.0
  0
LINE
  5
4A6
100
AcDbEntity
  8
0
  6
CONTINUOUS
 62
     0
100
AcDbLine
 10
147.741015
 20
-141.60708
 30
0.0
 11
148.093327
 21
-141.254768
 31
0.0
  0
LINE
  5
4A7
100
AcDbEntity
  8
0
  6
CONTINUOUS
 62
     0
100
AcDbLine
 10
147.599593
 20
-141.60708
 30
0.0
 11
148.0432
 21
-141.163473
 31
0.0
  0
LINE
  5
4A8
100
AcDbEntity
  8
0
  6
CONTINUOUS
 62
     0
100
AcDbLine
 10
147.458172
 20
-141.60708
 30
0.0
 11
147.958947
 21
-141.106305
 31
0.0
  0
LINE
  5
4A9
100
AcDbEntity
  8
0
  6
CONTINUOUS
 62
     0
100
AcDbLine
 10
147.31675
 20
-141.60708
 30
0.0
 11
147.831835
 21
-141.091996
 31
0.0
  0
LINE
  5
4AA
100
AcDbEntity
  8
0
  6
CONTINUOUS
 62
     0
100
AcDbLine
 10
147.175329
 20
-141.60708
 30
0.0
 11
147.690414
 21
-141.091996
 31
0.0
  0
LINE
  5
4AB
100
AcDbEntity
  8
0
  6
CONTINUOUS
 62
     0
100
AcDbLine
 10
147.033908
 20
-141.60708
 30
0.0
 11
147.548992
 21
-141.091996
 31
0.0
  0
LINE
  5
4AC
100
AcDbEntity
  8
0
  6
CONTINUOUS
 62
     0
100
AcDbLine
 10
146.892486
 20
-141.60708
 30
0.0
 11
147.407571
 21
-141.091996
 31
0.0
  0
LINE
  5
4AD
100
AcDbEntity
  8
0
  6
CONTINUOUS
 62
     0
100
AcDbLine
 10
146.751065
 20
-141.60708
 30
0.0
 11
147.26615
 21
-141.091996
 31
0.0
  0
LINE
  5
4AE
100
AcDbEntity
  8
0
  6
CONTINUOUS
 62
     0
100
AcDbLine
 10
146.609644
 20
-141.60708
 30
0.0
 11
147.124728
 21
-141.091996
 31
0.0
  0
LINE
  5
4AF
100
AcDbEntity
  8
0
  6
CONTINUOUS
 62
     0
100
AcDbLine
 10
146.468222
 20
-141.60708
 30
0.0
 11
146.983307
 21
-141.091996
 31
0.0
  0
LINE
  5
4B0
100
AcDbEntity
  8
0
  6
CONTINUOUS
 62
     0
100
AcDbLine
 10
146.326801
 20
-141.60708
 30
0.0
 11
146.841886
 21
-141.091996
 31
0.0
  0
LINE
  5
4B1
100
AcDbEntity
  8
0
  6
CONTINUOUS
 62
     0
100
AcDbLine
 10
146.18538
 20
-141.60708
 30
0.0
 11
146.700464
 21
-141.091996
 31
0.0
  0
LINE
  5
4B2
100
AcDbEntity
  8
0
  6
CONTINUOUS
 62
     0
100
AcDbLine
 10
146.043958
 20
-141.60708
 30
0.0
 11
146.559043
 21
-141.091996
 31
0.0
  0
LINE
  5
4B3
100
AcDbEntity
  8
0
  6
CONTINUOUS
 62
     0
100
AcDbLine
 10
145.902537
 20
-141.60708
 30
0.0
 11
146.417622
 21
-141.091996
 31
0.0
  0
LINE
  5
4B4
100
AcDbEntity
  8
0
  6
CONTINUOUS
 62
     0
100
AcDbLine
 10
145.761116
 20
-141.60708
 30
0.0
 11
146.344455
 21
-141.023741
 31
0.0
  0
LINE
  5
4B5
100
AcDbEntity
  8
0
  6
CONTINUOUS
 62
     0
100
AcDbLine
 10
145.619694
 20
-141.60708
 30
0.0
 11
146.344455
 21
-140.88232
 31
0.0
  0
LINE
  5
4B6
100
AcDbEntity
  8
0
  6
CONTINUOUS
 62
     0
100
AcDbLine
 10
145.478273
 20
-141.60708
 30
0.0
 11
146.344455
 21
-140.740899
 31
0.0
  0
LINE
  5
4B7
100
AcDbEntity
  8
0
  6
CONTINUOUS
 62
     0
100
AcDbLine
 10
145.336851
 20
-141.60708
 30
0.0
 11
146.344455
 21
-140.599477
 31
0.0
  0
LINE
  5
4B8
100
AcDbEntity
  8
0
  6
CONTINUOUS
 62
     0
100
AcDbLine
 10
145.19543
 20
-141.60708
 30
0.0
 11
146.344455
 21
-140.458056
 31
0.0
  0
LINE
  5
4B9
100
AcDbEntity
  8
0
  6
CONTINUOUS
 62
     0
100
AcDbLine
 10
145.054009
 20
-141.60708
 30
0.0
 11
145.569093
 21
-141.091996
 31
0.0
  0
LINE
  5
4BA
100
AcDbEntity
  8
0
  6
CONTINUOUS
 62
     0
100
AcDbLine
 10
145.594232
 20
-141.066857
 30
0.0
 11
146.344455
 21
-140.316635
 31
0.0
  0
LINE
  5
4BB
100
AcDbEntity
  8
0
  6
CONTINUOUS
 62
     0
100
AcDbLine
 10
144.912587
 20
-141.60708
 30
0.0
 11
145.427672
 21
-141.091996
 31
0.0
  0
LINE
  5
4BC
100
AcDbEntity
  8
0
  6
CONTINUOUS
 62
     0
100
AcDbLine
 10
145.594232
 20
-140.925435
 30
0.0
 11
146.344455
 21
-140.175213
 31
0.0
  0
LINE
  5
4BD
100
AcDbEntity
  8
0
  6
CONTINUOUS
 62
     0
100
AcDbLine
 10
144.771166
 20
-141.60708
 30
0.0
 11
145.286251
 21
-141.091996
 31
0.0
  0
LINE
  5
4BE
100
AcDbEntity
  8
0
  6
CONTINUOUS
 62
     0
100
AcDbLine
 10
145.594232
 20
-140.784014
 30
0.0
 11
146.344455
 21
-140.033792
 31
0.0
  0
LINE
  5
4BF
100
AcDbEntity
  8
0
  6
CONTINUOUS
 62
     0
100
AcDbLine
 10
144.629745
 20
-141.60708
 30
0.0
 11
145.144829
 21
-141.091996
 31
0.0
  0
LINE
  5
4C0
100
AcDbEntity
  8
0
  6
CONTINUOUS
 62
     0
100
AcDbLine
 10
145.594232
 20
-140.642593
 30
0.0
 11
146.344455
 21
-139.89237
 31
0.0
  0
LINE
  5
4C1
100
AcDbEntity
  8
0
  6
CONTINUOUS
 62
     0
100
AcDbLine
 10
144.488323
 20
-141.60708
 30
0.0
 11
145.003408
 21
-141.091996
 31
0.0
  0
LINE
  5
4C2
100
AcDbEntity
  8
0
  6
CONTINUOUS
 62
     0
100
AcDbLine
 10
145.594232
 20
-140.501171
 30
0.0
 11
146.344455
 21
-139.750949
 31
0.0
  0
LINE
  5
4C3
100
AcDbEntity
  8
0
  6
CONTINUOUS
 62
     0
100
AcDbLine
 10
144.346902
 20
-141.60708
 30
0.0
 11
144.861987
 21
-141.091996
 31
0.0
  0
LINE
  5
4C4
100
AcDbEntity
  8
0
  6
CONTINUOUS
 62
     0
100
AcDbLine
 10
145.594232
 20
-140.35975
 30
0.0
 11
146.344455
 21
-139.609528
 31
0.0
  0
LINE
  5
4C5
100
AcDbEntity
  8
0
  6
CONTINUOUS
 62
     0
100
AcDbLine
 10
147.714317
 20
-138.239666
 30
0.0
 11
147.902335
 21
-138.051647
 31
0.0
  0
LINE
  5
4C6
100
AcDbEntity
  8
0
  6
CONTINUOUS
 62
     0
100
AcDbLine
 10
144.205481
 20
-141.60708
 30
0.0
 11
144.720565
 21
-141.091996
 31
0.0
  0
LINE
  5
4C7
100
AcDbEntity
  8
0
  6
CONTINUOUS
 62
     0
100
AcDbLine
 10
145.594232
 20
-140.218329
 30
0.0
 11
146.344455
 21
-139.468106
 31
0.0
  0
LINE
  5
4C8
100
AcDbEntity
  8
0
  6
CONTINUOUS
 62
     0
100
AcDbLine
 10
147.570849
 20
-138.241712
 30
0.0
 11
147.901447
 21
-137.911114
 31
0.0
  0
LINE
  5
4C9
100
AcDbEntity
  8
0
  6
CONTINUOUS
 62
     0
100
AcDbLine
 10
144.064059
 20
-141.60708
 30
0.0
 11
144.579144
 21
-141.091996
 31
0.0
  0
LINE
  5
4CA
100
AcDbEntity
  8
0
  6
CONTINUOUS
 62
     0
100
AcDbLine
 10
145.594232
 20
-140.076907
 30
0.0
 11
146.344455
 21
-139.326685
 31
0.0
  0
LINE
  5
4CB
100
AcDbEntity
  8
0
  6
CONTINUOUS
 62
     0
100
AcDbLine
 10
147.429428
 20
-138.241712
 30
0.0
 11
147.858581
 21
-137.812559
 31
0.0
  0
LINE
  5
4CC
100
AcDbEntity
  8
0
  6
CONTINUOUS
 62
     0
100
AcDbLine
 10
143.932558
 20
-141.59716
 30
0.0
 11
144.437723
 21
-141.091996
 31
0.0
  0
LINE
  5
4CD
100
AcDbEntity
  8
0
  6
CONTINUOUS
 62
     0
100
AcDbLine
 10
145.594232
 20
-139.935486
 30
0.0
 11
146.344455
 21
-139.185264
 31
0.0
  0
LINE
  5
4CE
100
AcDbEntity
  8
0
  6
CONTINUOUS
 62
     0
100
AcDbLine
 10
147.288006
 20
-138.241712
 30
0.0
 11
147.780624
 21
-137.749095
 31
0.0
  0
LINE
  5
4CF
100
AcDbEntity
  8
0
  6
CONTINUOUS
 62
     0
100
AcDbLine
 10
143.843991
 20
-141.544306
 30
0.0
 11
144.296301
 21
-141.091996
 31
0.0
  0
LINE
  5
4D0
100
AcDbEntity
  8
0
  6
CONTINUOUS
 62
     0
100
AcDbLine
 10
145.594232
 20
-139.794065
 30
0.0
 11
146.344455
 21
-139.043842
 31
0.0
  0
LINE
  5
4D1
100
AcDbEntity
  8
0
  6
CONTINUOUS
 62
     0
100
AcDbLine
 10
147.146585
 20
-138.241712
 30
0.0
 11
147.661371
 21
-137.726926
 31
0.0
  0
LINE
  5
4D2
100
AcDbEntity
  8
0
  6
CONTINUOUS
 62
     0
100
AcDbLine
 10
143.789431
 20
-141.457445
 30
0.0
 11
144.15488
 21
-141.091996
 31
0.0
  0
LINE
  5
4D3
100
AcDbEntity
  8
0
  6
CONTINUOUS
 62
     0
100
AcDbLine
 10
145.594232
 20
-139.652643
 30
0.0
 11
146.344455
 21
-138.902421
 31
0.0
  0
LINE
  5
4D4
100
AcDbEntity
  8
0
  6
CONTINUOUS
 62
     0
100
AcDbLine
 10
147.005164
 20
-138.241712
 30
0.0
 11
147.519949
 21
-137.726926
 31
0.0
  0
LINE
  5
4D5
100
AcDbEntity
  8
0
  6
CONTINUOUS
 62
     0
100
AcDbLine
 10
143.777875
 20
-141.327579
 30
0.0
 11
144.013459
 21
-141.091996
 31
0.0
  0
LINE
  5
4D6
100
AcDbEntity
  8
0
  6
CONTINUOUS
 62
     0
100
AcDbLine
 10
145.594232
 20
-139.511222
 30
0.0
 11
146.344455
 21
-138.761
 31
0.0
  0
LINE
  5
4D7
100
AcDbEntity
  8
0
  6
CONTINUOUS
 62
     0
100
AcDbLine
 10
146.863742
 20
-138.241712
 30
0.0
 11
147.378528
 21
-137.726926
 31
0.0
  0
LINE
  5
4D8
100
AcDbEntity
  8
0
  6
CONTINUOUS
 62
     0
100
AcDbLine
 10
145.594232
 20
-139.369801
 30
0.0
 11
146.344455
 21
-138.619578
 31
0.0
  0
LINE
  5
4D9
100
AcDbEntity
  8
0
  6
CONTINUOUS
 62
     0
100
AcDbLine
 10
146.722321
 20
-138.241712
 30
0.0
 11
147.237107
 21
-137.726926
 31
0.0
  0
LINE
  5
4DA
100
AcDbEntity
  8
0
  6
CONTINUOUS
 62
     0
100
AcDbLine
 10
145.594232
 20
-139.228379
 30
0.0
 11
146.344455
 21
-138.478157
 31
0.0
  0
LINE
  5
4DB
100
AcDbEntity
  8
0
  6
CONTINUOUS
 62
     0
100
AcDbLine
 10
146.5809
 20
-138.241712
 30
0.0
 11
147.095685
 21
-137.726926
 31
0.0
  0
LINE
  5
4DC
100
AcDbEntity
  8
0
  6
CONTINUOUS
 62
     0
100
AcDbLine
 10
145.594232
 20
-139.086958
 30
0.0
 11
146.344455
 21
-138.336736
 31
0.0
  0
LINE
  5
4DD
100
AcDbEntity
  8
0
  6
CONTINUOUS
 62
     0
100
AcDbLine
 10
146.439478
 20
-138.241712
 30
0.0
 11
146.954264
 21
-137.726926
 31
0.0
  0
LINE
  5
4DE
100
AcDbEntity
  8
0
  6
CONTINUOUS
 62
     0
100
AcDbLine
 10
145.594232
 20
-138.945536
 30
0.0
 11
146.812843
 21
-137.726926
 31
0.0
  0
LINE
  5
4DF
100
AcDbEntity
  8
0
  6
CONTINUOUS
 62
     0
100
AcDbLine
 10
145.594232
 20
-138.804115
 30
0.0
 11
146.671421
 21
-137.726926
 31
0.0
  0
LINE
  5
4E0
100
AcDbEntity
  8
0
  6
CONTINUOUS
 62
     0
100
AcDbLine
 10
145.594232
 20
-138.662694
 30
0.0
 11
146.53
 21
-137.726926
 31
0.0
  0
LINE
  5
4E1
100
AcDbEntity
  8
0
  6
CONTINUOUS
 62
     0
100
AcDbLine
 10
145.594232
 20
-138.521272
 30
0.0
 11
146.388579
 21
-137.726926
 31
0.0
  0
LINE
  5
4E2
100
AcDbEntity
  8
0
  6
CONTINUOUS
 62
     0
100
AcDbLine
 10
145.594232
 20
-138.379851
 30
0.0
 11
146.247157
 21
-137.726926
 31
0.0
  0
LINE
  5
4E3
100
AcDbEntity
  8
0
  6
CONTINUOUS
 62
     0
100
AcDbLine
 10
145.59095
 20
-138.241712
 30
0.0
 11
146.105736
 21
-137.726926
 31
0.0
  0
LINE
  5
4E4
100
AcDbEntity
  8
0
  6
CONTINUOUS
 62
     0
100
AcDbLine
 10
145.449529
 20
-138.241712
 30
0.0
 11
145.964314
 21
-137.726926
 31
0.0
  0
LINE
  5
4E5
100
AcDbEntity
  8
0
  6
CONTINUOUS
 62
     0
100
AcDbLine
 10
145.308107
 20
-138.241712
 30
0.0
 11
145.822893
 21
-137.726926
 31
0.0
  0
LINE
  5
4E6
100
AcDbEntity
  8
0
  6
CONTINUOUS
 62
     0
100
AcDbLine
 10
145.166686
 20
-138.241712
 30
0.0
 11
145.681472
 21
-137.726926
 31
0.0
  0
LINE
  5
4E7
100
AcDbEntity
  8
0
  6
CONTINUOUS
 62
     0
100
AcDbLine
 10
145.025265
 20
-138.241712
 30
0.0
 11
145.54005
 21
-137.726926
 31
0.0
  0
LINE
  5
4E8
100
AcDbEntity
  8
0
  6
CONTINUOUS
 62
     0
100
AcDbLine
 10
144.883843
 20
-138.241712
 30
0.0
 11
145.398629
 21
-137.726926
 31
0.0
  0
LINE
  5
4E9
100
AcDbEntity
  8
0
  6
CONTINUOUS
 62
     0
100
AcDbLine
 10
144.742422
 20
-138.241712
 30
0.0
 11
145.257208
 21
-137.726926
 31
0.0
  0
LINE
  5
4EA
100
AcDbEntity
  8
0
  6
CONTINUOUS
 62
     0
100
AcDbLine
 10
144.601001
 20
-138.241712
 30
0.0
 11
145.115786
 21
-137.726926
 31
0.0
  0
LINE
  5
4EB
100
AcDbEntity
  8
0
  6
CONTINUOUS
 62
     0
100
AcDbLine
 10
144.459579
 20
-138.241712
 30
0.0
 11
144.974365
 21
-137.726926
 31
0.0
  0
LINE
  5
4EC
100
AcDbEntity
  8
0
  6
CONTINUOUS
 62
     0
100
AcDbLine
 10
144.318158
 20
-138.241712
 30
0.0
 11
144.832944
 21
-137.726926
 31
0.0
  0
LINE
  5
4ED
100
AcDbEntity
  8
0
  6
CONTINUOUS
 62
     0
100
AcDbLine
 10
144.17735
 20
-138.241099
 30
0.0
 11
144.691522
 21
-137.726926
 31
0.0
  0
LINE
  5
4EE
100
AcDbEntity
  8
0
  6
CONTINUOUS
 62
     0
100
AcDbLine
 10
144.072049
 20
-138.204978
 30
0.0
 11
144.550101
 21
-137.726926
 31
0.0
  0
LINE
  5
4EF
100
AcDbEntity
  8
0
  6
CONTINUOUS
 62
     0
100
AcDbLine
 10
144.003476
 20
-138.132129
 30
0.0
 11
144.40868
 21
-137.726926
 31
0.0
  0
LINE
  5
4F0
100
AcDbEntity
  8
0
  6
CONTINUOUS
 62
     0
100
AcDbLine
 10
143.97376
 20
-138.020424
 30
0.0
 11
144.267258
 21
-137.726926
 31
0.0
  0
LINE
  5
4F1
100
AcDbEntity
  8
0
  6
CONTINUOUS
 62
     0
100
AcDbLine
 10
143.990849
 20
-137.861914
 30
0.0
 11
144.108748
 21
-137.744015
 31
0.0
  0
ENDBLK
  5
4F2
100
AcDbEntity
  8
0
  6
ByBlock
 62
     0
100
AcDbBlockEnd
  0
BLOCK
  5
4F5
100
AcDbEntity
  8
0
  6
ByBlock
 62
     0
100
AcDbBlockBegin
  2
*X6
 70
     1
 10
0.0
 20
0.0
 30
0.0
  3
*X6
  1

  0
LINE
  5
4F6
100
AcDbEntity
  8
0
  6
CONTINUOUS
 62
     0
100
AcDbLine
 10
152.612038
 20
-141.685804
 30
0.0
 11
152.881219
 21
-141.416624
 31
0.0
  0
LINE
  5
4F7
100
AcDbEntity
  8
0
  6
CONTINUOUS
 62
     0
100
AcDbLine
 10
152.49781
 20
-141.658611
 30
0.0
 11
152.849371
 21
-141.30705
 31
0.0
  0
LINE
  5
4F8
100
AcDbEntity
  8
0
  6
CONTINUOUS
 62
     0
100
AcDbLine
 10
152.387267
 20
-141.627733
 30
0.0
 11
152.784253
 21
-141.230747
 31
0.0
  0
LINE
  5
4F9
100
AcDbEntity
  8
0
  6
CONTINUOUS
 62
     0
100
AcDbLine
 10
152.276725
 20
-141.596854
 30
0.0
 11
152.689509
 21
-141.18407
 31
0.0
  0
LINE
  5
4FA
100
AcDbEntity
  8
0
  6
CONTINUOUS
 62
     0
100
AcDbLine
 10
152.166182
 20
-141.565975
 30
0.0
 11
152.576713
 21
-141.155444
 31
0.0
  0
LINE
  5
4FB
100
AcDbEntity
  8
0
  6
CONTINUOUS
 62
     0
100
AcDbLine
 10
152.05564
 20
-141.535096
 30
0.0
 11
152.464698
 21
-141.126038
 31
0.0
  0
LINE
  5
4FC
100
AcDbEntity
  8
0
  6
CONTINUOUS
 62
     0
100
AcDbLine
 10
151.945097
 20
-141.504217
 30
0.0
 11
152.352683
 21
-141.096631
 31
0.0
  0
LINE
  5
4FD
100
AcDbEntity
  8
0
  6
CONTINUOUS
 62
     0
100
AcDbLine
 10
152.678897
 20
-140.770417
 30
0.0
 11
152.852084
 21
-140.59723
 31
0.0
  0
LINE
  5
4FE
100
AcDbEntity
  8
0
  6
CONTINUOUS
 62
     0
100
AcDbLine
 10
151.834555
 20
-141.473338
 30
0.0
 11
152.240669
 21
-141.067224
 31
0.0
  0
LINE
  5
4FF
100
AcDbEntity
  8
0
  6
CONTINUOUS
 62
     0
100
AcDbLine
 10
152.53588
 20
-140.772013
 30
0.0
 11
152.831045
 21
-140.476848
 31
0.0
  0
LINE
  5
500
100
AcDbEntity
  8
0
  6
CONTINUOUS
 62
     0
100
AcDbLine
 10
151.734774
 20
-141.431698
 30
0.0
 11
152.128654
 21
-141.037817
 31
0.0
  0
LINE
  5
501
100
AcDbEntity
  8
0
  6
CONTINUOUS
 62
     0
100
AcDbLine
 10
152.394458
 20
-140.772013
 30
0.0
 11
152.764014
 21
-140.402457
 31
0.0
  0
LINE
  5
502
100
AcDbEntity
  8
0
  6
CONTINUOUS
 62
     0
100
AcDbLine
 10
151.641577
 20
-141.383473
 30
0.0
 11
152.025458
 21
-140.999592
 31
0.0
  0
LINE
  5
503
100
AcDbEntity
  8
0
  6
CONTINUOUS
 62
     0
100
AcDbLine
 10
152.253037
 20
-140.772013
 30
0.0
 11
152.65577
 21
-140.36928
 31
0.0
  0
LINE
  5
504
100
AcDbEntity
  8
0
  6
CONTINUOUS
 62
     0
100
AcDbLine
 10
151.54838
 20
-141.335249
 30
0.0
 11
151.928544
 21
-140.955085
 31
0.0
  0
LINE
  5
505
100
AcDbEntity
  8
0
  6
CONTINUOUS
 62
     0
100
AcDbLine
 10
152.111615
 20
-140.772013
 30
0.0
 11
152.514359
 21
-140.369269
 31
0.0
  0
LINE
  5
506
100
AcDbEntity
  8
0
  6
CONTINUOUS
 62
     0
100
AcDbLine
 10
151.455182
 20
-141.287025
 30
0.0
 11
151.83163
 21
-140.910578
 31
0.0
  0
LINE
  5
507
100
AcDbEntity
  8
0
  6
CONTINUOUS
 62
     0
100
AcDbLine
 10
151.970194
 20
-140.772013
 30
0.0
 11
152.372938
 21
-140.369269
 31
0.0
  0
LINE
  5
508
100
AcDbEntity
  8
0
  6
CONTINUOUS
 62
     0
100
AcDbLine
 10
150.785438
 20
-141.815348
 30
0.0
 11
151.06327
 21
-141.537516
 31
0.0
  0
LINE
  5
509
100
AcDbEntity
  8
0
  6
CONTINUOUS
 62
     0
100
AcDbLine
 10
151.361985
 20
-141.238801
 30
0.0
 11
151.734715
 21
-140.866071
 31
0.0
  0
LINE
  5
50A
100
AcDbEntity
  8
0
  6
CONTINUOUS
 62
     0
100
AcDbLine
 10
151.828773
 20
-140.772013
 30
0.0
 11
152.231517
 21
-140.369269
 31
0.0
  0
LINE
  5
50B
100
AcDbEntity
  8
0
  6
CONTINUOUS
 62
     0
100
AcDbLine
 10
150.644072
 20
-141.815293
 30
0.0
 11
151.063266
 21
-141.396098
 31
0.0
  0
LINE
  5
50C
100
AcDbEntity
  8
0
  6
CONTINUOUS
 62
     0
100
AcDbLine
 10
151.268788
 20
-141.190577
 30
0.0
 11
151.637801
 21
-140.821563
 31
0.0
  0
LINE
  5
50D
100
AcDbEntity
  8
0
  6
CONTINUOUS
 62
     0
100
AcDbLine
 10
151.687351
 20
-140.772013
 30
0.0
 11
152.090095
 21
-140.369269
 31
0.0
  0
LINE
  5
50E
100
AcDbEntity
  8
0
  6
CONTINUOUS
 62
     0
100
AcDbLine
 10
152.376319
 20
-140.083046
 30
0.0
 11
152.571845
 21
-139.887519
 31
0.0
  0
LINE
  5
50F
100
AcDbEntity
  8
0
  6
CONTINUOUS
 62
     0
100
AcDbLine
 10
150.531069
 20
-141.786874
 30
0.0
 11
151.063263
 21
-141.25468
 31
0.0
  0
LINE
  5
510
100
AcDbEntity
  8
0
  6
CONTINUOUS
 62
     0
100
AcDbLine
 10
151.175591
 20
-141.142352
 30
0.0
 11
151.540887
 21
-140.777056
 31
0.0
  0
LINE
  5
511
100
AcDbEntity
  8
0
  6
CONTINUOUS
 62
     0
100
AcDbLine
 10
151.54593
 20
-140.772013
 30
0.0
 11
151.948674
 21
-140.369269
 31
0.0
  0
LINE
  5
512
100
AcDbEntity
  8
0
  6
CONTINUOUS
 62
     0
100
AcDbLine
 10
152.234897
 20
-140.083046
 30
0.0
 11
152.53521
 21
-139.782734
 31
0.0
  0
LINE
  5
513
100
AcDbEntity
  8
0
  6
CONTINUOUS
 62
     0
100
AcDbLine
 10
150.451947
 20
-141.724575
 30
0.0
 11
151.06326
 21
-141.113262
 31
0.0
  0
LINE
  5
514
100
AcDbEntity
  8
0
  6
CONTINUOUS
 62
     0
100
AcDbLine
 10
151.082394
 20
-141.094128
 30
0.0
 11
151.807253
 21
-140.369269
 31
0.0
  0
LINE
  5
515
100
AcDbEntity
  8
0
  6
CONTINUOUS
 62
     0
100
AcDbLine
 10
152.093476
 20
-140.083046
 30
0.0
 11
152.456295
 21
-139.720227
 31
0.0
  0
LINE
  5
516
100
AcDbEntity
  8
0
  6
CONTINUOUS
 62
     0
100
AcDbLine
 10
150.401381
 20
-141.63372
 30
0.0
 11
151.665831
 21
-140.369269
 31
0.0
  0
LINE
  5
517
100
AcDbEntity
  8
0
  6
CONTINUOUS
 62
     0
100
AcDbLine
 10
151.952054
 20
-140.083046
 30
0.0
 11
152.330003
 21
-139.705098
 31
0.0
  0
LINE
  5
518
100
AcDbEntity
  8
0
  6
CONTINUOUS
 62
     0
100
AcDbLine
 10
150.38924
 20
-141.504439
 30
0.0
 11
151.52441
 21
-140.369269
 31
0.0
  0
LINE
  5
519
100
AcDbEntity
  8
0
  6
CONTINUOUS
 62
     0
100
AcDbLine
 10
151.810633
 20
-140.083046
 30
0.0
 11
152.188581
 21
-139.705098
 31
0.0
  0
LINE
  5
51A
100
AcDbEntity
  8
0
  6
CONTINUOUS
 62
     0
100
AcDbLine
 10
152.464943
 20
-139.428736
 30
0.0
 11
152.696711
 21
-139.196968
 31
0.0
  0
LINE
  5
51B
100
AcDbEntity
  8
0
  6
CONTINUOUS
 62
     0
100
AcDbLine
 10
150.389236
 20
-141.363022
 30
0.0
 11
151.382989
 21
-140.369269
 31
0.0
  0
LINE
  5
51C
100
AcDbEntity
  8
0
  6
CONTINUOUS
 62
     0
100
AcDbLine
 10
151.669212
 20
-140.083046
 30
0.0
 11
152.04716
 21
-139.705098
 31
0.0
  0
LINE
  5
51D
100
AcDbEntity
  8
0
  6
CONTINUOUS
 62
     0
100
AcDbLine
 10
152.323522
 20
-139.428736
 30
0.0
 11
152.655732
 21
-139.096526
 31
0.0
  0
LINE
  5
51E
100
AcDbEntity
  8
0
  6
CONTINUOUS
 62
     0
100
AcDbLine
 10
150.389232
 20
-141.221604
 30
0.0
 11
151.241567
 21
-140.369269
 31
0.0
  0
LINE
  5
51F
100
AcDbEntity
  8
0
  6
CONTINUOUS
 62
     0
100
AcDbLine
 10
151.52779
 20
-140.083046
 30
0.0
 11
151.905739
 21
-139.705098
 31
0.0
  0
LINE
  5
520
100
AcDbEntity
  8
0
  6
CONTINUOUS
 62
     0
100
AcDbLine
 10
152.1821
 20
-139.428736
 30
0.0
 11
152.576646
 21
-139.034191
 31
0.0
  0
LINE
  5
521
100
AcDbEntity
  8
0
  6
CONTINUOUS
 62
     0
100
AcDbLine
 10
150.389228
 20
-141.080187
 30
0.0
 11
151.100146
 21
-140.369269
 31
0.0
  0
LINE
  5
522
100
AcDbEntity
  8
0
  6
CONTINUOUS
 62
     0
100
AcDbLine
 10
151.386369
 20
-140.083046
 30
0.0
 11
151.764317
 21
-139.705098
 31
0.0
  0
LINE
  5
523
100
AcDbEntity
  8
0
  6
CONTINUOUS
 62
     0
100
AcDbLine
 10
152.040679
 20
-139.428736
 30
0.0
 11
152.452988
 21
-139.016427
 31
0.0
  0
LINE
  5
524
100
AcDbEntity
  8
0
  6
CONTINUOUS
 62
     0
100
AcDbLine
 10
150.099696
 20
-141.228298
 30
0.0
 11
151.063263
 21
-140.264731
 31
0.0
  0
LINE
  5
525
100
AcDbEntity
  8
0
  6
CONTINUOUS
 62
     0
100
AcDbLine
 10
151.244948
 20
-140.083046
 30
0.0
 11
151.622896
 21
-139.705098
 31
0.0
  0
LINE
  5
526
100
AcDbEntity
  8
0
  6
CONTINUOUS
 62
     0
100
AcDbLine
 10
151.899258
 20
-139.428736
 30
0.0
 11
152.311566
 21
-139.016427
 31
0.0
  0
LINE
  5
527
100
AcDbEntity
  8
0
  6
CONTINUOUS
 62
     0
100
AcDbLine
 10
152.67109
 20
-138.656904
 30
0.0
 11
152.879364
 21
-138.44863
 31
0.0
  0
LINE
  5
528
100
AcDbEntity
  8
0
  6
CONTINUOUS
 62
     0
100
AcDbLine
 10
149.803618
 20
-141.382954
 30
0.0
 11
151.063263
 21
-140.123309
 31
0.0
  0
LINE
  5
529
100
AcDbEntity
  8
0
  6
CONTINUOUS
 62
     0
100
AcDbLine
 10
151.103526
 20
-140.083046
 30
0.0
 11
151.481474
 21
-139.705098
 31
0.0
  0
LINE
  5
52A
100
AcDbEntity
  8
0
  6
CONTINUOUS
 62
     0
100
AcDbLine
 10
151.757836
 20
-139.428736
 30
0.0
 11
152.170145
 21
-139.016427
 31
0.0
  0
LINE
  5
52B
100
AcDbEntity
  8
0
  6
CONTINUOUS
 62
     0
100
AcDbLine
 10
152.529567
 20
-138.657006
 30
0.0
 11
152.853607
 21
-138.332966
 31
0.0
  0
LINE
  5
52C
100
AcDbEntity
  8
0
  6
CONTINUOUS
 62
     0
100
AcDbLine
 10
149.555273
 20
-141.489878
 30
0.0
 11
151.340053
 21
-139.705098
 31
0.0
  0
LINE
  5
52D
100
AcDbEntity
  8
0
  6
CONTINUOUS
 62
     0
100
AcDbLine
 10
151.616415
 20
-139.428736
 30
0.0
 11
152.028724
 21
-139.016427
 31
0.0
  0
LINE
  5
52E
100
AcDbEntity
  8
0
  6
CONTINUOUS
 62
     0
100
AcDbLine
 10
152.388145
 20
-138.657006
 30
0.0
 11
152.786776
 21
-138.258375
 31
0.0
  0
LINE
  5
52F
100
AcDbEntity
  8
0
  6
CONTINUOUS
 62
     0
100
AcDbLine
 10
149.360349
 20
-141.543381
 30
0.0
 11
151.198632
 21
-139.705098
 31
0.0
  0
LINE
  5
530
100
AcDbEntity
  8
0
  6
CONTINUOUS
 62
     0
100
AcDbLine
 10
151.474994
 20
-139.428736
 30
0.0
 11
151.887302
 21
-139.016427
 31
0.0
  0
LINE
  5
531
100
AcDbEntity
  8
0
  6
CONTINUOUS
 62
     0
100
AcDbLine
 10
152.246724
 20
-138.657006
 30
0.0
 11
152.682756
 21
-138.220974
 31
0.0
  0
LINE
  5
532
100
AcDbEntity
  8
0
  6
CONTINUOUS
 62
     0
100
AcDbLine
 10
149.165426
 20
-141.596883
 30
0.0
 11
149.982575
 21
-140.779733
 31
0.0
  0
LINE
  5
533
100
AcDbEntity
  8
0
  6
CONTINUOUS
 62
     0
100
AcDbLine
 10
149.990295
 20
-140.772013
 30
0.0
 11
151.063263
 21
-139.699045
 31
0.0
  0
LINE
  5
534
100
AcDbEntity
  8
0
  6
CONTINUOUS
 62
     0
100
AcDbLine
 10
151.333572
 20
-139.428736
 30
0.0
 11
151.754342
 21
-139.007967
 31
0.0
  0
LINE
  5
535
100
AcDbEntity
  8
0
  6
CONTINUOUS
 62
     0
100
AcDbLine
 10
152.105303
 20
-138.657006
 30
0.0
 11
152.542114
 21
-138.220194
 31
0.0
  0
LINE
  5
536
100
AcDbEntity
  8
0
  6
CONTINUOUS
 62
     0
100
AcDbLine
 10
148.970502
 20
-141.650385
 30
0.0
 11
149.743061
 21
-140.877826
 31
0.0
  0
LINE
  5
537
100
AcDbEntity
  8
0
  6
CONTINUOUS
 62
     0
100
AcDbLine
 10
149.848874
 20
-140.772013
 30
0.0
 11
150.251618
 21
-140.369269
 31
0.0
  0
LINE
  5
538
100
AcDbEntity
  8
0
  6
CONTINUOUS
 62
     0
100
AcDbLine
 10
150.389231
 20
-140.231657
 30
0.0
 11
151.063263
 21
-139.557624
 31
0.0
  0
LINE
  5
539
100
AcDbEntity
  8
0
  6
CONTINUOUS
 62
     0
100
AcDbLine
 10
151.192151
 20
-139.428736
 30
0.0
 11
151.80683
 21
-138.814057
 31
0.0
  0
LINE
  5
53A
100
AcDbEntity
  8
0
  6
CONTINUOUS
 62
     0
100
AcDbLine
 10
151.963881
 20
-138.657006
 30
0.0
 11
152.400693
 21
-138.220194
 31
0.0
  0
LINE
  5
53B
100
AcDbEntity
  8
0
  6
CONTINUOUS
 62
     0
100
AcDbLine
 10
148.789851
 20
-141.689614
 30
0.0
 11
149.503546
 21
-140.975919
 31
0.0
  0
LINE
  5
53C
100
AcDbEntity
  8
0
  6
CONTINUOUS
 62
     0
100
AcDbLine
 10
149.707452
 20
-140.772013
 30
0.0
 11
150.110196
 21
-140.369269
 31
0.0
  0
LINE
  5
53D
100
AcDbEntity
  8
0
  6
CONTINUOUS
 62
     0
100
AcDbLine
 10
150.389231
 20
-140.090235
 30
0.0
 11
152.431027
 21
-138.048438
 31
0.0
  0
LINE
  5
53E
100
AcDbEntity
  8
0
  6
CONTINUOUS
 62
     0
100
AcDbLine
 10
148.6779
 20
-141.660144
 30
0.0
 11
149.291728
 21
-141.046317
 31
0.0
  0
LINE
  5
53F
100
AcDbEntity
  8
0
  6
CONTINUOUS
 62
     0
100
AcDbLine
 10
149.566031
 20
-140.772013
 30
0.0
 11
149.968775
 21
-140.369269
 31
0.0
  0
LINE
  5
540
100
AcDbEntity
  8
0
  6
CONTINUOUS
 62
     0
100
AcDbLine
 10
150.254998
 20
-140.083046
 30
0.0
 11
152.548492
 21
-137.789553
 31
0.0
  0
LINE
  5
541
100
AcDbEntity
  8
0
  6
CONTINUOUS
 62
     0
100
AcDbLine
 10
148.599829
 20
-141.596794
 30
0.0
 11
149.103597
 21
-141.093026
 31
0.0
  0
LINE
  5
542
100
AcDbEntity
  8
0
  6
CONTINUOUS
 62
     0
100
AcDbLine
 10
149.42461
 20
-140.772013
 30
0.0
 11
149.827354
 21
-140.369269
 31
0.0
  0
LINE
  5
543
100
AcDbEntity
  8
0
  6
CONTINUOUS
 62
     0
100
AcDbLine
 10
150.113577
 20
-140.083046
 30
0.0
 11
152.52077
 21
-137.675853
 31
0.0
  0
LINE
  5
544
100
AcDbEntity
  8
0
  6
CONTINUOUS
 62
     0
100
AcDbLine
 10
148.550865
 20
-141.504337
 30
0.0
 11
148.915467
 21
-141.139734
 31
0.0
  0
LINE
  5
545
100
AcDbEntity
  8
0
  6
CONTINUOUS
 62
     0
100
AcDbLine
 10
149.283188
 20
-140.772013
 30
0.0
 11
149.685932
 21
-140.369269
 31
0.0
  0
LINE
  5
546
100
AcDbEntity
  8
0
  6
CONTINUOUS
 62
     0
100
AcDbLine
 10
149.972156
 20
-140.083046
 30
0.0
 11
150.350104
 21
-139.705098
 31
0.0
  0
LINE
  5
547
100
AcDbEntity
  8
0
  6
CONTINUOUS
 62
     0
100
AcDbLine
 10
150.389231
 20
-139.665971
 30
0.0
 11
151.038774
 21
-139.016427
 31
0.0
  0
LINE
  5
548
100
AcDbEntity
  8
0
  6
CONTINUOUS
 62
     0
100
AcDbLine
 10
151.070636
 20
-138.984566
 30
0.0
 11
152.443699
 21
-137.611503
 31
0.0
  0
LINE
  5
549
100
AcDbEntity
  8
0
  6
CONTINUOUS
 62
     0
100
AcDbLine
 10
148.550261
 20
-141.36352
 30
0.0
 11
148.728234
 21
-141.185547
 31
0.0
  0
LINE
  5
54A
100
AcDbEntity
  8
0
  6
CONTINUOUS
 62
     0
100
AcDbLine
 10
149.141767
 20
-140.772013
 30
0.0
 11
149.544511
 21
-140.369269
 31
0.0
  0
LINE
  5
54B
100
AcDbEntity
  8
0
  6
CONTINUOUS
 62
     0
100
AcDbLine
 10
149.830734
 20
-140.083046
 30
0.0
 11
150.208682
 21
-139.705098
 31
0.0
  0
LINE
  5
54C
100
AcDbEntity
  8
0
  6
CONTINUOUS
 62
     0
100
AcDbLine
 10
150.389231
 20
-139.52455
 30
0.0
 11
150.897353
 21
-139.016427
 31
0.0
  0
LINE
  5
54D
100
AcDbEntity
  8
0
  6
CONTINUOUS
 62
     0
100
AcDbLine
 10
151.164837
 20
-138.748943
 30
0.0
 11
152.347957
 21
-137.565823
 31
0.0
  0
LINE
  5
54E
100
AcDbEntity
  8
0
  6
CONTINUOUS
 62
     0
100
AcDbLine
 10
149.000346
 20
-140.772013
 30
0.0
 11
149.40309
 21
-140.369269
 31
0.0
  0
LINE
  5
54F
100
AcDbEntity
  8
0
  6
CONTINUOUS
 62
     0
100
AcDbLine
 10
149.689313
 20
-140.083046
 30
0.0
 11
150.067261
 21
-139.705098
 31
0.0
  0
LINE
  5
550
100
AcDbEntity
  8
0
  6
CONTINUOUS
 62
     0
100
AcDbLine
 10
150.343623
 20
-139.428736
 30
0.0
 11
150.755931
 21
-139.016427
 31
0.0
  0
LINE
  5
551
100
AcDbEntity
  8
0
  6
CONTINUOUS
 62
     0
100
AcDbLine
 10
151.115353
 20
-138.657006
 30
0.0
 11
151.552164
 21
-138.220194
 31
0.0
  0
LINE
  5
552
100
AcDbEntity
  8
0
  6
CONTINUOUS
 62
     0
100
AcDbLine
 10
151.82722
 20
-137.945139
 30
0.0
 11
152.228667
 21
-137.543692
 31
0.0
  0
LINE
  5
553
100
AcDbEntity
  8
0
  6
CONTINUOUS
 62
     0
100
AcDbLine
 10
148.858924
 20
-140.772013
 30
0.0
 11
149.261668
 21
-140.369269
 31
0.0
  0
LINE
  5
554
100
AcDbEntity
  8
0
  6
CONTINUOUS
 62
     0
100
AcDbLine
 10
149.547891
 20
-140.083046
 30
0.0
 11
149.92584
 21
-139.705098
 31
0.0
  0
LINE
  5
555
100
AcDbEntity
  8
0
  6
CONTINUOUS
 62
     0
100
AcDbLine
 10
150.202201
 20
-139.428736
 30
0.0
 11
150.61451
 21
-139.016427
 31
0.0
  0
LINE
  5
556
100
AcDbEntity
  8
0
  6
CONTINUOUS
 62
     0
100
AcDbLine
 10
150.973932
 20
-138.657006
 30
0.0
 11
151.517699
 21
-138.113238
 31
0.0
  0
LINE
  5
557
100
AcDbEntity
  8
0
  6
CONTINUOUS
 62
     0
100
AcDbLine
 10
148.722216
 20
-140.7673
 30
0.0
 11
149.120247
 21
-140.369269
 31
0.0
  0
LINE
  5
558
100
AcDbEntity
  8
0
  6
CONTINUOUS
 62
     0
100
AcDbLine
 10
149.40647
 20
-140.083046
 30
0.0
 11
149.784418
 21
-139.705098
 31
0.0
  0
LINE
  5
559
100
AcDbEntity
  8
0
  6
CONTINUOUS
 62
     0
100
AcDbLine
 10
150.06078
 20
-139.428736
 30
0.0
 11
150.473089
 21
-139.016427
 31
0.0
  0
LINE
  5
55A
100
AcDbEntity
  8
0
  6
CONTINUOUS
 62
     0
100
AcDbLine
 10
150.832511
 20
-138.657006
 30
0.0
 11
151.517698
 21
-137.971818
 31
0.0
  0
LINE
  5
55B
100
AcDbEntity
  8
0
  6
CONTINUOUS
 62
     0
100
AcDbLine
 10
148.62941
 20
-140.718684
 30
0.0
 11
148.978825
 21
-140.369269
 31
0.0
  0
LINE
  5
55C
100
AcDbEntity
  8
0
  6
CONTINUOUS
 62
     0
100
AcDbLine
 10
149.265049
 20
-140.083046
 30
0.0
 11
149.642997
 21
-139.705098
 31
0.0
  0
LINE
  5
55D
100
AcDbEntity
  8
0
  6
CONTINUOUS
 62
     0
100
AcDbLine
 10
149.919359
 20
-139.428736
 30
0.0
 11
150.396026
 21
-138.952069
 31
0.0
  0
LINE
  5
55E
100
AcDbEntity
  8
0
  6
CONTINUOUS
 62
     0
100
AcDbLine
 10
150.691089
 20
-138.657006
 30
0.0
 11
151.517697
 21
-137.830398
 31
0.0
  0
LINE
  5
55F
100
AcDbEntity
  8
0
  6
CONTINUOUS
 62
     0
100
AcDbLine
 10
148.574608
 20
-140.632066
 30
0.0
 11
148.837404
 21
-140.369269
 31
0.0
  0
LINE
  5
560
100
AcDbEntity
  8
0
  6
CONTINUOUS
 62
     0
100
AcDbLine
 10
149.123627
 20
-140.083046
 30
0.0
 11
149.501575
 21
-139.705098
 31
0.0
  0
LINE
  5
561
100
AcDbEntity
  8
0
  6
CONTINUOUS
 62
     0
100
AcDbLine
 10
149.777937
 20
-139.428736
 30
0.0
 11
150.360121
 21
-138.846553
 31
0.0
  0
LINE
  5
562
100
AcDbEntity
  8
0
  6
CONTINUOUS
 62
     0
100
AcDbLine
 10
150.549668
 20
-138.657006
 30
0.0
 11
151.517696
 21
-137.688977
 31
0.0
  0
LINE
  5
563
100
AcDbEntity
  8
0
  6
CONTINUOUS
 62
     0
100
AcDbLine
 10
148.587596
 20
-140.477657
 30
0.0
 11
148.673767
 21
-140.391486
 31
0.0
  0
LINE
  5
564
100
AcDbEntity
  8
0
  6
CONTINUOUS
 62
     0
100
AcDbLine
 10
148.987706
 20
-140.077546
 30
0.0
 11
149.360154
 21
-139.705098
 31
0.0
  0
LINE
  5
565
100
AcDbEntity
  8
0
  6
CONTINUOUS
 62
     0
100
AcDbLine
 10
149.636516
 20
-139.428736
 30
0.0
 11
150.324215
 21
-138.741037
 31
0.0
  0
LINE
  5
566
100
AcDbEntity
  8
0
  6
CONTINUOUS
 62
     0
100
AcDbLine
 10
150.408247
 20
-138.657006
 30
0.0
 11
151.497977
 21
-137.567275
 31
0.0
  0
LINE
  5
567
100
AcDbEntity
  8
0
  6
CONTINUOUS
 62
     0
100
AcDbLine
 10
148.897593
 20
-140.026238
 30
0.0
 11
149.218733
 21
-139.705098
 31
0.0
  0
LINE
  5
568
100
AcDbEntity
  8
0
  6
CONTINUOUS
 62
     0
100
AcDbLine
 10
149.495095
 20
-139.428736
 30
0.0
 11
150.703633
 21
-138.220198
 31
0.0
  0
LINE
  5
569
100
AcDbEntity
  8
0
  6
CONTINUOUS
 62
     0
100
AcDbLine
 10
150.843976
 20
-138.079855
 30
0.0
 11
151.416465
 21
-137.507366
 31
0.0
  0
LINE
  5
56A
100
AcDbEntity
  8
0
  6
CONTINUOUS
 62
     0
100
AcDbLine
 10
148.847713
 20
-139.934696
 30
0.0
 11
149.077311
 21
-139.705098
 31
0.0
  0
LINE
  5
56B
100
AcDbEntity
  8
0
  6
CONTINUOUS
 62
     0
100
AcDbLine
 10
149.353673
 20
-139.428736
 30
0.0
 11
150.589122
 21
-138.193288
 31
0.0
  0
LINE
  5
56C
100
AcDbEntity
  8
0
  6
CONTINUOUS
 62
     0
100
AcDbLine
 10
150.843976
 20
-137.938434
 30
0.0
 11
151.308844
 21
-137.473566
 31
0.0
  0
LINE
  5
56D
100
AcDbEntity
  8
0
  6
CONTINUOUS
 62
     0
100
AcDbLine
 10
149.212252
 20
-139.428736
 30
0.0
 11
149.624561
 21
-139.016427
 31
0.0
  0
LINE
  5
56E
100
AcDbEntity
  8
0
  6
CONTINUOUS
 62
     0
100
AcDbLine
 10
149.720512
 20
-138.920476
 30
0.0
 11
150.589122
 21
-138.051866
 31
0.0
  0
LINE
  5
56F
100
AcDbEntity
  8
0
  6
CONTINUOUS
 62
     0
100
AcDbLine
 10
150.843976
 20
-137.797013
 30
0.0
 11
151.17968
 21
-137.461308
 31
0.0
  0
LINE
  5
570
100
AcDbEntity
  8
0
  6
CONTINUOUS
 62
     0
100
AcDbLine
 10
149.070831
 20
-139.428736
 30
0.0
 11
149.483139
 21
-139.016427
 31
0.0
  0
LINE
  5
571
100
AcDbEntity
  8
0
  6
CONTINUOUS
 62
     0
100
AcDbLine
 10
149.681061
 20
-138.818506
 30
0.0
 11
150.589122
 21
-137.910444
 31
0.0
  0
LINE
  5
572
100
AcDbEntity
  8
0
  6
CONTINUOUS
 62
     0
100
AcDbLine
 10
150.843975
 20
-137.655591
 30
0.0
 11
151.018089
 21
-137.481478
 31
0.0
  0
LINE
  5
573
100
AcDbEntity
  8
0
  6
CONTINUOUS
 62
     0
100
AcDbLine
 10
148.929409
 20
-139.428736
 30
0.0
 11
149.341718
 21
-139.016427
 31
0.0
  0
LINE
  5
574
100
AcDbEntity
  8
0
  6
CONTINUOUS
 62
     0
100
AcDbLine
 10
149.64161
 20
-138.716535
 30
0.0
 11
150.589123
 21
-137.769023
 31
0.0
  0
LINE
  5
575
100
AcDbEntity
  8
0
  6
CONTINUOUS
 62
     0
100
AcDbLine
 10
148.819642
 20
-139.397082
 30
0.0
 11
149.200297
 21
-139.016427
 31
0.0
  0
LINE
  5
576
100
AcDbEntity
  8
0
  6
CONTINUOUS
 62
     0
100
AcDbLine
 10
149.559718
 20
-138.657006
 30
0.0
 11
150.589123
 21
-137.627601
 31
0.0
  0
LINE
  5
577
100
AcDbEntity
  8
0
  6
CONTINUOUS
 62
     0
100
AcDbLine
 10
148.750642
 20
-139.324661
 30
0.0
 11
149.058875
 21
-139.016427
 31
0.0
  0
LINE
  5
578
100
AcDbEntity
  8
0
  6
CONTINUOUS
 62
     0
100
AcDbLine
 10
149.418297
 20
-138.657006
 30
0.0
 11
149.855108
 21
-138.220194
 31
0.0
  0
LINE
  5
579
100
AcDbEntity
  8
0
  6
CONTINUOUS
 62
     0
100
AcDbLine
 10
149.939579
 20
-138.135723
 30
0.0
 11
150.538509
 21
-137.536794
 31
0.0
  0
LINE
  5
57A
100
AcDbEntity
  8
0
  6
CONTINUOUS
 62
     0
100
AcDbLine
 10
148.724427
 20
-139.209454
 30
0.0
 11
148.917104
 21
-139.016777
 31
0.0
  0
LINE
  5
57B
100
AcDbEntity
  8
0
  6
CONTINUOUS
 62
     0
100
AcDbLine
 10
149.276876
 20
-138.657006
 30
0.0
 11
149.779493
 21
-138.154388
 31
0.0
  0
LINE
  5
57C
100
AcDbEntity
  8
0
  6
CONTINUOUS
 62
     0
100
AcDbLine
 10
149.939579
 20
-137.994302
 30
0.0
 11
150.445297
 21
-137.488584
 31
0.0
  0
LINE
  5
57D
100
AcDbEntity
  8
0
  6
CONTINUOUS
 62
     0
100
AcDbLine
 10
149.135454
 20
-138.657006
 30
0.0
 11
149.728884
 21
-138.063576
 31
0.0
  0
LINE
  5
57E
100
AcDbEntity
  8
0
  6
CONTINUOUS
 62
     0
100
AcDbLine
 10
149.939579
 20
-137.852881
 30
0.0
 11
150.327812
 21
-137.464648
 31
0.0
  0
LINE
  5
57F
100
AcDbEntity
  8
0
  6
CONTINUOUS
 62
     0
100
AcDbLine
 10
148.994033
 20
-138.657006
 30
0.0
 11
149.678276
 21
-137.972763
 31
0.0
  0
LINE
  5
580
100
AcDbEntity
  8
0
  6
CONTINUOUS
 62
     0
100
AcDbLine
 10
149.939578
 20
-137.71146
 30
0.0
 11
150.184499
 21
-137.46654
 31
0.0
  0
LINE
  5
581
100
AcDbEntity
  8
0
  6
CONTINUOUS
 62
     0
100
AcDbLine
 10
148.852612
 20
-138.657006
 30
0.0
 11
149.627667
 21
-137.88195
 31
0.0
  0
LINE
  5
582
100
AcDbEntity
  8
0
  6
CONTINUOUS
 62
     0
100
AcDbLine
 10
148.715047
 20
-138.653149
 30
0.0
 11
149.577058
 21
-137.791138
 31
0.0
  0
LINE
  5
583
100
AcDbEntity
  8
0
  6
CONTINUOUS
 62
     0
100
AcDbLine
 10
148.618851
 20
-138.607923
 30
0.0
 11
149.00658
 21
-138.220194
 31
0.0
  0
LINE
  5
584
100
AcDbEntity
  8
0
  6
CONTINUOUS
 62
     0
100
AcDbLine
 10
149.093041
 20
-138.133733
 30
0.0
 11
149.52645
 21
-137.700325
 31
0.0
  0
LINE
  5
585
100
AcDbEntity
  8
0
  6
CONTINUOUS
 62
     0
100
AcDbLine
 10
148.558176
 20
-138.527177
 30
0.0
 11
148.865159
 21
-138.220194
 31
0.0
  0
LINE
  5
586
100
AcDbEntity
  8
0
  6
CONTINUOUS
 62
     0
100
AcDbLine
 10
149.04243
 20
-138.042923
 30
0.0
 11
149.460203
 21
-137.62515
 31
0.0
  0
LINE
  5
587
100
AcDbEntity
  8
0
  6
CONTINUOUS
 62
     0
100
AcDbLine
 10
148.543399
 20
-138.400533
 30
0.0
 11
148.720925
 21
-138.223007
 31
0.0
  0
LINE
  5
588
100
AcDbEntity
  8
0
  6
CONTINUOUS
 62
     0
100
AcDbLine
 10
148.991819
 20
-137.952113
 30
0.0
 11
149.38159
 21
-137.562342
 31
0.0
  0
LINE
  5
589
100
AcDbEntity
  8
0
  6
CONTINUOUS
 62
     0
100
AcDbLine
 10
148.941377
 20
-137.861133
 30
0.0
 11
149.255516
 21
-137.546994
 31
0.0
  0
LINE
  5
58A
100
AcDbEntity
  8
0
  6
CONTINUOUS
 62
     0
100
AcDbLine
 10
148.933084
 20
-137.728006
 30
0.0
 11
149.045698
 21
-137.615391
 31
0.0
  0
ENDBLK
  5
58B
100
AcDbEntity
  8
0
  6
ByBlock
 62
     0
100
AcDbBlockEnd
  0
BLOCK
  5
58E
100
AcDbEntity
  8
0
  6
ByBlock
 62
     0
100
AcDbBlockBegin
  2
*X7
 70
     1
 10
0.0
 20
0.0
 30
0.0
  3
*X7
  1

  0
LINE
  5
58F
100
AcDbEntity
  8
0
  6
CONTINUOUS
 62
     0
100
AcDbLine
 10
157.546974
 20
-141.417774
 30
0.0
 11
157.716853
 21
-141.247894
 31
0.0
  0
LINE
  5
590
100
AcDbEntity
  8
0
  6
CONTINUOUS
 62
     0
100
AcDbLine
 10
157.384589
 20
-141.438737
 30
0.0
 11
157.737816
 21
-141.085509
 31
0.0
  0
LINE
  5
591
100
AcDbEntity
  8
0
  6
CONTINUOUS
 62
     0
100
AcDbLine
 10
157.277959
 20
-141.403945
 30
0.0
 11
157.703025
 21
-140.97888
 31
0.0
  0
LINE
  5
592
100
AcDbEntity
  8
0
  6
CONTINUOUS
 62
     0
100
AcDbLine
 10
157.198088
 20
-141.342395
 30
0.0
 11
157.641637
 21
-140.898846
 31
0.0
  0
LINE
  5
593
100
AcDbEntity
  8
0
  6
CONTINUOUS
 62
     0
100
AcDbLine
 10
157.136694
 20
-141.262368
 30
0.0
 11
157.575295
 21
-140.823767
 31
0.0
  0
LINE
  5
594
100
AcDbEntity
  8
0
  6
CONTINUOUS
 62
     0
100
AcDbLine
 10
156.472035
 20
-141.785606
 30
0.0
 11
156.671351
 21
-141.586289
 31
0.0
  0
LINE
  5
595
100
AcDbEntity
  8
0
  6
CONTINUOUS
 62
     0
100
AcDbLine
 10
157.076311
 20
-141.181329
 30
0.0
 11
157.508952
 21
-140.748688
 31
0.0
  0
LINE
  5
596
100
AcDbEntity
  8
0
  6
CONTINUOUS
 62
     0
100
AcDbLine
 10
156.30966
 20
-141.806559
 30
0.0
 11
156.673025
 21
-141.443194
 31
0.0
  0
LINE
  5
597
100
AcDbEntity
  8
0
  6
CONTINUOUS
 62
     0
100
AcDbLine
 10
157.015928
 20
-141.100291
 30
0.0
 11
157.44261
 21
-140.673609
 31
0.0
  0
LINE
  5
598
100
AcDbEntity
  8
0
  6
CONTINUOUS
 62
     0
100
AcDbLine
 10
156.18921
 20
-141.785588
 30
0.0
 11
156.673024
 21
-141.301774
 31
0.0
  0
LINE
  5
599
100
AcDbEntity
  8
0
  6
CONTINUOUS
 62
     0
100
AcDbLine
 10
156.955545
 20
-141.019253
 30
0.0
 11
157.376268
 21
-140.59853
 31
0.0
  0
LINE
  5
59A
100
AcDbEntity
  8
0
  6
CONTINUOUS
 62
     0
100
AcDbLine
 10
156.095261
 20
-141.738115
 30
0.0
 11
156.673023
 21
-141.160353
 31
0.0
  0
LINE
  5
59B
100
AcDbEntity
  8
0
  6
CONTINUOUS
 62
     0
100
AcDbLine
 10
156.89683
 20
-140.936546
 30
0.0
 11
157.309925
 21
-140.523451
 31
0.0
  0
LINE
  5
59C
100
AcDbEntity
  8
0
  6
CONTINUOUS
 62
     0
100
AcDbLine
 10
156.031488
 20
-141.660466
 30
0.0
 11
156.673022
 21
-141.018933
 31
0.0
  0
LINE
  5
59D
100
AcDbEntity
  8
0
  6
CONTINUOUS
 62
     0
100
AcDbLine
 10
156.845323
 20
-140.846632
 30
0.0
 11
157.243583
 21
-140.448372
 31
0.0
  0
LINE
  5
59E
100
AcDbEntity
  8
0
  6
CONTINUOUS
 62
     0
100
AcDbLine
 10
156.008556
 20
-141.541978
 30
0.0
 11
156.673021
 21
-140.877513
 31
0.0
  0
LINE
  5
59F
100
AcDbEntity
  8
0
  6
CONTINUOUS
 62
     0
100
AcDbLine
 10
156.793816
 20
-140.756717
 30
0.0
 11
157.17724
 21
-140.373293
 31
0.0
  0
LINE
  5
5A0
100
AcDbEntity
  8
0
  6
CONTINUOUS
 62
     0
100
AcDbLine
 10
156.008554
 20
-141.400558
 30
0.0
 11
156.67302
 21
-140.736092
 31
0.0
  0
LINE
  5
5A1
100
AcDbEntity
  8
0
  6
CONTINUOUS
 62
     0
100
AcDbLine
 10
156.742309
 20
-140.666803
 30
0.0
 11
157.117439
 21
-140.291674
 31
0.0
  0
LINE
  5
5A2
100
AcDbEntity
  8
0
  6
CONTINUOUS
 62
     0
100
AcDbLine
 10
156.008552
 20
-141.259139
 30
0.0
 11
156.673019
 21
-140.594672
 31
0.0
  0
LINE
  5
5A3
100
AcDbEntity
  8
0
  6
CONTINUOUS
 62
     0
100
AcDbLine
 10
156.690802
 20
-140.576888
 30
0.0
 11
157.063583
 21
-140.204108
 31
0.0
  0
LINE
  5
5A4
100
AcDbEntity
  8
0
  6
CONTINUOUS
 62
     0
100
AcDbLine
 10
156.00855
 20
-141.117719
 30
0.0
 11
157.009728
 21
-140.116542
 31
0.0
  0
LINE
  5
5A5
100
AcDbEntity
  8
0
  6
CONTINUOUS
 62
     0
100
AcDbLine
 10
157.428944
 20
-139.697326
 30
0.0
 11
157.676596
 21
-139.449674
 31
0.0
  0
LINE
  5
5A6
100
AcDbEntity
  8
0
  6
CONTINUOUS
 62
     0
100
AcDbLine
 10
156.008548
 20
-140.9763
 30
0.0
 11
156.955873
 21
-140.028976
 31
0.0
  0
LINE
  5
5A7
100
AcDbEntity
  8
0
  6
CONTINUOUS
 62
     0
100
AcDbLine
 10
157.287522
 20
-139.697326
 30
0.0
 11
157.646762
 21
-139.338086
 31
0.0
  0
LINE
  5
5A8
100
AcDbEntity
  8
0
  6
CONTINUOUS
 62
     0
100
AcDbLine
 10
156.008546
 20
-140.83488
 30
0.0
 11
156.902017
 21
-139.94141
 31
0.0
  0
LINE
  5
5A9
100
AcDbEntity
  8
0
  6
CONTINUOUS
 62
     0
100
AcDbLine
 10
157.146101
 20
-139.697326
 30
0.0
 11
157.579655
 21
-139.263772
 31
0.0
  0
LINE
  5
5AA
100
AcDbEntity
  8
0
  6
CONTINUOUS
 62
     0
100
AcDbLine
 10
156.008545
 20
-140.693461
 30
0.0
 11
156.848162
 21
-139.853844
 31
0.0
  0
LINE
  5
5AB
100
AcDbEntity
  8
0
  6
CONTINUOUS
 62
     0
100
AcDbLine
 10
157.00468
 20
-139.697326
 30
0.0
 11
157.478414
 21
-139.223592
 31
0.0
  0
LINE
  5
5AC
100
AcDbEntity
  8
0
  6
CONTINUOUS
 62
     0
100
AcDbLine
 10
155.050974
 20
-141.50961
 30
0.0
 11
155.843949
 21
-140.716635
 31
0.0
  0
LINE
  5
5AD
100
AcDbEntity
  8
0
  6
CONTINUOUS
 62
     0
100
AcDbLine
 10
156.008543
 20
-140.552041
 30
0.0
 11
156.794307
 21
-139.766277
 31
0.0
  0
LINE
  5
5AE
100
AcDbEntity
  8
0
  6
CONTINUOUS
 62
     0
100
AcDbLine
 10
156.863258
 20
-139.697326
 30
0.0
 11
157.339203
 21
-139.221381
 31
0.0
  0
LINE
  5
5AF
100
AcDbEntity
  8
0
  6
CONTINUOUS
 62
     0
100
AcDbLine
 10
154.925503
 20
-141.49366
 30
0.0
 11
157.197782
 21
-139.221381
 31
0.0
  0
LINE
  5
5B0
100
AcDbEntity
  8
0
  6
CONTINUOUS
 62
     0
100
AcDbLine
 10
154.83471
 20
-141.443031
 30
0.0
 11
157.05636
 21
-139.221381
 31
0.0
  0
LINE
  5
5B1
100
AcDbEntity
  8
0
  6
CONTINUOUS
 62
     0
100
AcDbLine
 10
154.768347
 20
-141.367973
 30
0.0
 11
156.914939
 21
-139.221381
 31
0.0
  0
LINE
  5
5B2
100
AcDbEntity
  8
0
  6
CONTINUOUS
 62
     0
100
AcDbLine
 10
154.72819
 20
-141.266708
 30
0.0
 11
156.773518
 21
-139.221381
 31
0.0
  0
LINE
  5
5B3
100
AcDbEntity
  8
0
  6
CONTINUOUS
 62
     0
100
AcDbLine
 10
154.735918
 20
-141.117559
 30
0.0
 11
156.673017
 21
-139.18046
 31
0.0
  0
LINE
  5
5B4
100
AcDbEntity
  8
0
  6
CONTINUOUS
 62
     0
100
AcDbLine
 10
157.293871
 20
-138.559606
 30
0.0
 11
157.559165
 21
-138.294312
 31
0.0
  0
LINE
  5
5B5
100
AcDbEntity
  8
0
  6
CONTINUOUS
 62
     0
100
AcDbLine
 10
155.623082
 20
-140.088974
 30
0.0
 11
156.673017
 21
-139.039038
 31
0.0
  0
LINE
  5
5B6
100
AcDbEntity
  8
0
  6
CONTINUOUS
 62
     0
100
AcDbLine
 10
157.152449
 20
-138.559606
 30
0.0
 11
157.523286
 21
-138.18877
 31
0.0
  0
LINE
  5
5B7
100
AcDbEntity
  8
0
  6
CONTINUOUS
 62
     0
100
AcDbLine
 10
155.873308
 20
-139.697326
 30
0.0
 11
156.673017
 21
-138.897617
 31
0.0
  0
LINE
  5
5B8
100
AcDbEntity
  8
0
  6
CONTINUOUS
 62
     0
100
AcDbLine
 10
157.011028
 20
-138.559606
 30
0.0
 11
157.452136
 21
-138.118499
 31
0.0
  0
LINE
  5
5B9
100
AcDbEntity
  8
0
  6
CONTINUOUS
 62
     0
100
AcDbLine
 10
155.731887
 20
-139.697326
 30
0.0
 11
156.673017
 21
-138.756196
 31
0.0
  0
LINE
  5
5BA
100
AcDbEntity
  8
0
  6
CONTINUOUS
 62
     0
100
AcDbLine
 10
156.869607
 20
-138.559606
 30
0.0
 11
157.345335
 21
-138.083878
 31
0.0
  0
LINE
  5
5BB
100
AcDbEntity
  8
0
  6
CONTINUOUS
 62
     0
100
AcDbLine
 10
155.590466
 20
-139.697326
 30
0.0
 11
156.673017
 21
-138.614774
 31
0.0
  0
LINE
  5
5BC
100
AcDbEntity
  8
0
  6
CONTINUOUS
 62
     0
100
AcDbLine
 10
156.728185
 20
-138.559606
 30
0.0
 11
157.204429
 21
-138.083363
 31
0.0
  0
LINE
  5
5BD
100
AcDbEntity
  8
0
  6
CONTINUOUS
 62
     0
100
AcDbLine
 10
155.449045
 20
-139.697326
 30
0.0
 11
155.924986
 21
-139.221385
 31
0.0
  0
LINE
  5
5BE
100
AcDbEntity
  8
0
  6
CONTINUOUS
 62
     0
100
AcDbLine
 10
156.008556
 20
-139.137814
 30
0.0
 11
157.063007
 21
-138.083363
 31
0.0
  0
LINE
  5
5BF
100
AcDbEntity
  8
0
  6
CONTINUOUS
 62
     0
100
AcDbLine
 10
155.307623
 20
-139.697326
 30
0.0
 11
155.783565
 21
-139.221384
 31
0.0
  0
LINE
  5
5C0
100
AcDbEntity
  8
0
  6
CONTINUOUS
 62
     0
100
AcDbLine
 10
156.008556
 20
-138.996393
 30
0.0
 11
156.921586
 21
-138.083363
 31
0.0
  0
LINE
  5
5C1
100
AcDbEntity
  8
0
  6
CONTINUOUS
 62
     0
100
AcDbLine
 10
155.169916
 20
-139.693612
 30
0.0
 11
155.642144
 21
-139.221383
 31
0.0
  0
LINE
  5
5C2
100
AcDbEntity
  8
0
  6
CONTINUOUS
 62
     0
100
AcDbLine
 10
156.008556
 20
-138.854972
 30
0.0
 11
156.780165
 21
-138.083363
 31
0.0
  0
LINE
  5
5C3
100
AcDbEntity
  8
0
  6
CONTINUOUS
 62
     0
100
AcDbLine
 10
155.07177
 20
-139.650336
 30
0.0
 11
155.500724
 21
-139.221383
 31
0.0
  0
LINE
  5
5C4
100
AcDbEntity
  8
0
  6
CONTINUOUS
 62
     0
100
AcDbLine
 10
156.008556
 20
-138.71355
 30
0.0
 11
156.673017
 21
-138.049089
 31
0.0
  0
LINE
  5
5C5
100
AcDbEntity
  8
0
  6
CONTINUOUS
 62
     0
100
AcDbLine
 10
155.007098
 20
-139.573587
 30
0.0
 11
155.359303
 21
-139.221382
 31
0.0
  0
LINE
  5
5C6
100
AcDbEntity
  8
0
  6
CONTINUOUS
 62
     0
100
AcDbLine
 10
156.008556
 20
-138.572129
 30
0.0
 11
156.673016
 21
-137.907669
 31
0.0
  0
LINE
  5
5C7
100
AcDbEntity
  8
0
  6
CONTINUOUS
 62
     0
100
AcDbLine
 10
154.981079
 20
-139.458184
 30
0.0
 11
155.217883
 21
-139.221381
 31
0.0
  0
LINE
  5
5C8
100
AcDbEntity
  8
0
  6
CONTINUOUS
 62
     0
100
AcDbLine
 10
155.879657
 20
-138.559607
 30
0.0
 11
156.673015
 21
-137.766248
 31
0.0
  0
LINE
  5
5C9
100
AcDbEntity
  8
0
  6
CONTINUOUS
 62
     0
100
AcDbLine
 10
155.195354
 20
-139.102488
 30
0.0
 11
155.495158
 21
-138.802684
 31
0.0
  0
LINE
  5
5CA
100
AcDbEntity
  8
0
  6
CONTINUOUS
 62
     0
100
AcDbLine
 10
155.738236
 20
-138.559606
 30
0.0
 11
156.663548
 21
-137.634294
 31
0.0
  0
LINE
  5
5CB
100
AcDbEntity
  8
0
  6
CONTINUOUS
 62
     0
100
AcDbLine
 10
155.075424
 20
-139.080997
 30
0.0
 11
155.570465
 21
-138.585955
 31
0.0
  0
LINE
  5
5CC
100
AcDbEntity
  8
0
  6
CONTINUOUS
 62
     0
100
AcDbLine
 10
155.596815
 20
-138.559606
 30
0.0
 11
156.606944
 21
-137.549477
 31
0.0
  0
LINE
  5
5CD
100
AcDbEntity
  8
0
  6
CONTINUOUS
 62
     0
100
AcDbLine
 10
154.989436
 20
-139.025564
 30
0.0
 11
155.931637
 21
-138.083363
 31
0.0
  0
LINE
  5
5CE
100
AcDbEntity
  8
0
  6
CONTINUOUS
 62
     0
100
AcDbLine
 10
156.008553
 20
-138.006446
 30
0.0
 11
156.517013
 21
-137.497986
 31
0.0
  0
LINE
  5
5CF
100
AcDbEntity
  8
0
  6
CONTINUOUS
 62
     0
100
AcDbLine
 10
154.929079
 20
-138.944499
 30
0.0
 11
155.790215
 21
-138.083363
 31
0.0
  0
LINE
  5
5D0
100
AcDbEntity
  8
0
  6
CONTINUOUS
 62
     0
100
AcDbLine
 10
156.008549
 20
-137.86503
 30
0.0
 11
156.406287
 21
-137.467291
 31
0.0
  0
LINE
  5
5D1
100
AcDbEntity
  8
0
  6
CONTINUOUS
 62
     0
100
AcDbLine
 10
154.899565
 20
-138.832592
 30
0.0
 11
155.718986
 21
-138.013171
 31
0.0
  0
LINE
  5
5D2
100
AcDbEntity
  8
0
  6
CONTINUOUS
 62
     0
100
AcDbLine
 10
156.008544
 20
-137.723613
 30
0.0
 11
156.263101
 21
-137.469055
 31
0.0
  0
LINE
  5
5D3
100
AcDbEntity
  8
0
  6
CONTINUOUS
 62
     0
100
AcDbLine
 10
154.946962
 20
-138.643774
 30
0.0
 11
155.74743
 21
-137.843305
 31
0.0
  0
LINE
  5
5D4
100
AcDbEntity
  8
0
  6
CONTINUOUS
 62
     0
100
AcDbLine
 10
155.038264
 20
-138.41105
 30
0.0
 11
155.724496
 21
-137.724818
 31
0.0
  0
LINE
  5
5D5
100
AcDbEntity
  8
0
  6
CONTINUOUS
 62
     0
100
AcDbLine
 10
155.112766
 20
-138.195127
 30
0.0
 11
155.667095
 21
-137.640798
 31
0.0
  0
LINE
  5
5D6
100
AcDbEntity
  8
0
  6
CONTINUOUS
 62
     0
100
AcDbLine
 10
155.153191
 20
-138.013281
 30
0.0
 11
155.58301
 21
-137.583462
 31
0.0
  0
LINE
  5
5D7
100
AcDbEntity
  8
0
  6
CONTINUOUS
 62
     0
100
AcDbLine
 10
155.193615
 20
-137.831435
 30
0.0
 11
155.46441
 21
-137.56064
 31
0.0
  0
ENDBLK
  5
5D8
100
AcDbEntity
  8
0
  6
ByBlock
 62
     0
100
AcDbBlockEnd
  0
BLOCK
  5
5DB
100
AcDbEntity
  8
0
  6
ByBlock
 62
     0
100
AcDbBlockBegin
  2
*X8
 70
     1
 10
0.0
 20
0.0
 30
0.0
  3
*X8
  1

  0
LINE
  5
5DC
100
AcDbEntity
  8
0
  6
CONTINUOUS
 62
     0
100
AcDbLine
 10
161.86195
 20
-141.769702
 30
0.0
 11
162.322298
 21
-141.309354
 31
0.0
  0
LINE
  5
5DD
100
AcDbEntity
  8
0
  6
CONTINUOUS
 62
     0
100
AcDbLine
 10
161.705727
 20
-141.784503
 30
0.0
 11
162.408507
 21
-141.081724
 31
0.0
  0
LINE
  5
5DE
100
AcDbEntity
  8
0
  6
CONTINUOUS
 62
     0
100
AcDbLine
 10
161.581612
 20
-141.767197
 30
0.0
 11
162.45273
 21
-140.896079
 31
0.0
  0
LINE
  5
5DF
100
AcDbEntity
  8
0
  6
CONTINUOUS
 62
     0
100
AcDbLine
 10
161.476589
 20
-141.730799
 30
0.0
 11
162.475424
 21
-140.731964
 31
0.0
  0
LINE
  5
5E0
100
AcDbEntity
  8
0
  6
CONTINUOUS
 62
     0
100
AcDbLine
 10
161.385971
 20
-141.679996
 30
0.0
 11
162.498119
 21
-140.567848
 31
0.0
  0
LINE
  5
5E1
100
AcDbEntity
  8
0
  6
CONTINUOUS
 62
     0
100
AcDbLine
 10
161.307748
 20
-141.616797
 30
0.0
 11
162.491023
 21
-140.433522
 31
0.0
  0
LINE
  5
5E2
100
AcDbEntity
  8
0
  6
CONTINUOUS
 62
     0
100
AcDbLine
 10
161.241262
 20
-141.541862
 30
0.0
 11
161.728494
 21
-141.05463
 31
0.0
  0
LINE
  5
5E3
100
AcDbEntity
  8
0
  6
CONTINUOUS
 62
     0
100
AcDbLine
 10
161.841224
 20
-140.9419
 30
0.0
 11
162.443269
 21
-140.339854
 31
0.0
  0
LINE
  5
5E4
100
AcDbEntity
  8
0
  6
CONTINUOUS
 62
     0
100
AcDbLine
 10
161.186878
 20
-141.454824
 30
0.0
 11
161.686726
 21
-140.954976
 31
0.0
  0
LINE
  5
5E5
100
AcDbEntity
  8
0
  6
CONTINUOUS
 62
     0
100
AcDbLine
 10
161.877495
 20
-140.764207
 30
0.0
 11
162.370281
 21
-140.271421
 31
0.0
  0
LINE
  5
5E6
100
AcDbEntity
  8
0
  6
CONTINUOUS
 62
     0
100
AcDbLine
 10
161.148357
 20
-141.351924
 30
0.0
 11
161.653355
 21
-140.846926
 31
0.0
  0
LINE
  5
5E7
100
AcDbEntity
  8
0
  6
CONTINUOUS
 62
     0
100
AcDbLine
 10
161.896454
 20
-140.603827
 30
0.0
 11
162.271092
 21
-140.229189
 31
0.0
  0
LINE
  5
5E8
100
AcDbEntity
  8
0
  6
CONTINUOUS
 62
     0
100
AcDbLine
 10
161.113693
 20
-141.245166
 30
0.0
 11
161.619984
 21
-140.738876
 31
0.0
  0
LINE
  5
5E9
100
AcDbEntity
  8
0
  6
CONTINUOUS
 62
     0
100
AcDbLine
 10
161.918937
 20
-140.439922
 30
0.0
 11
162.125961
 21
-140.232899
 31
0.0
  0
LINE
  5
5EA
100
AcDbEntity
  8
0
  6
CONTINUOUS
 62
     0
100
AcDbLine
 10
161.079029
 20
-141.138409
 30
0.0
 11
161.586613
 21
-140.630825
 31
0.0
  0
LINE
  5
5EB
100
AcDbEntity
  8
0
  6
CONTINUOUS
 62
     0
100
AcDbLine
 10
161.044365
 20
-141.031652
 30
0.0
 11
161.553242
 21
-140.522775
 31
0.0
  0
LINE
  5
5EC
100
AcDbEntity
  8
0
  6
CONTINUOUS
 62
     0
100
AcDbLine
 10
161.009701
 20
-140.924894
 30
0.0
 11
161.519871
 21
-140.414725
 31
0.0
  0
LINE
  5
5ED
100
AcDbEntity
  8
0
  6
CONTINUOUS
 62
     0
100
AcDbLine
 10
160.975037
 20
-140.818137
 30
0.0
 11
161.4865
 21
-140.306674
 31
0.0
  0
LINE
  5
5EE
100
AcDbEntity
  8
0
  6
CONTINUOUS
 62
     0
100
AcDbLine
 10
160.940374
 20
-140.711379
 30
0.0
 11
161.453129
 21
-140.198624
 31
0.0
  0
LINE
  5
5EF
100
AcDbEntity
  8
0
  6
CONTINUOUS
 62
     0
100
AcDbLine
 10
160.90571
 20
-140.604622
 30
0.0
 11
161.419758
 21
-140.090574
 31
0.0
  0
LINE
  5
5F0
100
AcDbEntity
  8
0
  6
CONTINUOUS
 62
     0
100
AcDbLine
 10
160.871046
 20
-140.497864
 30
0.0
 11
161.386386
 21
-139.982524
 31
0.0
  0
LINE
  5
5F1
100
AcDbEntity
  8
0
  6
CONTINUOUS
 62
     0
100
AcDbLine
 10
160.836382
 20
-140.391107
 30
0.0
 11
161.353015
 21
-139.874473
 31
0.0
  0
LINE
  5
5F2
100
AcDbEntity
  8
0
  6
CONTINUOUS
 62
     0
100
AcDbLine
 10
160.801718
 20
-140.28435
 30
0.0
 11
161.320403
 21
-139.765664
 31
0.0
  0
LINE
  5
5F3
100
AcDbEntity
  8
0
  6
CONTINUOUS
 62
     0
100
AcDbLine
 10
162.213
 20
-138.873067
 30
0.0
 11
162.450189
 21
-138.635879
 31
0.0
  0
LINE
  5
5F4
100
AcDbEntity
  8
0
  6
CONTINUOUS
 62
     0
100
AcDbLine
 10
160.767054
 20
-140.177592
 30
0.0
 11
161.305713
 21
-139.638934
 31
0.0
  0
LINE
  5
5F5
100
AcDbEntity
  8
0
  6
CONTINUOUS
 62
     0
100
AcDbLine
 10
162.08441
 20
-138.860236
 30
0.0
 11
162.437357
 21
-138.507289
 31
0.0
  0
LINE
  5
5F6
100
AcDbEntity
  8
0
  6
CONTINUOUS
 62
     0
100
AcDbLine
 10
160.73239
 20
-140.070835
 30
0.0
 11
161.291022
 21
-139.512203
 31
0.0
  0
LINE
  5
5F7
100
AcDbEntity
  8
0
  6
CONTINUOUS
 62
     0
100
AcDbLine
 10
161.99467
 20
-138.808554
 30
0.0
 11
162.390458
 21
-138.412767
 31
0.0
  0
LINE
  5
5F8
100
AcDbEntity
  8
0
  6
CONTINUOUS
 62
     0
100
AcDbLine
 10
160.69935
 20
-139.962453
 30
0.0
 11
161.276332
 21
-139.385472
 31
0.0
  0
LINE
  5
5F9
100
AcDbEntity
  8
0
  6
CONTINUOUS
 62
     0
100
AcDbLine
 10
161.93158
 20
-138.730223
 30
0.0
 11
162.341303
 21
-138.320501
 31
0.0
  0
LINE
  5
5FA
100
AcDbEntity
  8
0
  6
CONTINUOUS
 62
     0
100
AcDbLine
 10
160.684257
 20
-139.836125
 30
0.0
 11
161.261641
 21
-139.258741
 31
0.0
  0
LINE
  5
5FB
100
AcDbEntity
  8
0
  6
CONTINUOUS
 62
     0
100
AcDbLine
 10
161.883666
 20
-138.636716
 30
0.0
 11
162.292148
 21
-138.228234
 31
0.0
  0
LINE
  5
5FC
100
AcDbEntity
  8
0
  6
CONTINUOUS
 62
     0
100
AcDbLine
 10
160.669163
 20
-139.709798
 30
0.0
 11
161.24695
 21
-139.13201
 31
0.0
  0
LINE
  5
5FD
100
AcDbEntity
  8
0
  6
CONTINUOUS
 62
     0
100
AcDbLine
 10
161.835719
 20
-138.543242
 30
0.0
 11
162.242993
 21
-138.135968
 31
0.0
  0
LINE
  5
5FE
100
AcDbEntity
  8
0
  6
CONTINUOUS
 62
     0
100
AcDbLine
 10
160.654069
 20
-139.58347
 30
0.0
 11
161.23226
 21
-139.005279
 31
0.0
  0
LINE
  5
5FF
100
AcDbEntity
  8
0
  6
CONTINUOUS
 62
     0
100
AcDbLine
 10
161.775932
 20
-138.461607
 30
0.0
 11
162.193837
 21
-138.043702
 31
0.0
  0
LINE
  5
600
100
AcDbEntity
  8
0
  6
CONTINUOUS
 62
     0
100
AcDbLine
 10
160.638976
 20
-139.457142
 30
0.0
 11
161.217569
 21
-138.878549
 31
0.0
  0
LINE
  5
601
100
AcDbEntity
  8
0
  6
CONTINUOUS
 62
     0
100
AcDbLine
 10
161.634511
 20
-138.461607
 30
0.0
 11
162.138172
 21
-137.957945
 31
0.0
  0
LINE
  5
602
100
AcDbEntity
  8
0
  6
CONTINUOUS
 62
     0
100
AcDbLine
 10
160.623882
 20
-139.330815
 30
0.0
 11
161.202879
 21
-138.751818
 31
0.0
  0
LINE
  5
603
100
AcDbEntity
  8
0
  6
CONTINUOUS
 62
     0
100
AcDbLine
 10
161.493089
 20
-138.461607
 30
0.0
 11
162.082405
 21
-137.872292
 31
0.0
  0
LINE
  5
604
100
AcDbEntity
  8
0
  6
CONTINUOUS
 62
     0
100
AcDbLine
 10
160.608788
 20
-139.204487
 30
0.0
 11
161.188188
 21
-138.625087
 31
0.0
  0
LINE
  5
605
100
AcDbEntity
  8
0
  6
CONTINUOUS
 62
     0
100
AcDbLine
 10
161.351668
 20
-138.461607
 30
0.0
 11
162.026637
 21
-137.786638
 31
0.0
  0
LINE
  5
606
100
AcDbEntity
  8
0
  6
CONTINUOUS
 62
     0
100
AcDbLine
 10
160.593695
 20
-139.078159
 30
0.0
 11
161.173498
 21
-138.498356
 31
0.0
  0
LINE
  5
607
100
AcDbEntity
  8
0
  6
CONTINUOUS
 62
     0
100
AcDbLine
 10
161.210247
 20
-138.461607
 30
0.0
 11
161.97087
 21
-137.700984
 31
0.0
  0
LINE
  5
608
100
AcDbEntity
  8
0
  6
CONTINUOUS
 62
     0
100
AcDbLine
 10
160.578601
 20
-138.951831
 30
0.0
 11
161.914361
 21
-137.616071
 31
0.0
  0
LINE
  5
609
100
AcDbEntity
  8
0
  6
CONTINUOUS
 62
     0
100
AcDbLine
 10
160.563508
 20
-138.825504
 30
0.0
 11
161.432628
 21
-137.956383
 31
0.0
  0
LINE
  5
60A
100
AcDbEntity
  8
0
  6
CONTINUOUS
 62
     0
100
AcDbLine
 10
161.458949
 20
-137.930062
 30
0.0
 11
161.838688
 21
-137.550323
 31
0.0
  0
LINE
  5
60B
100
AcDbEntity
  8
0
  6
CONTINUOUS
 62
     0
100
AcDbLine
 10
160.548414
 20
-138.699176
 30
0.0
 11
161.291207
 21
-137.956383
 31
0.0
  0
LINE
  5
60C
100
AcDbEntity
  8
0
  6
CONTINUOUS
 62
     0
100
AcDbLine
 10
161.422733
 20
-137.824857
 30
0.0
 11
161.733484
 21
-137.514106
 31
0.0
  0
LINE
  5
60D
100
AcDbEntity
  8
0
  6
CONTINUOUS
 62
     0
100
AcDbLine
 10
160.53332
 20
-138.572848
 30
0.0
 11
161.16148
 21
-137.944688
 31
0.0
  0
LINE
  5
60E
100
AcDbEntity
  8
0
  6
CONTINUOUS
 62
     0
100
AcDbLine
 10
161.460147
 20
-137.646021
 30
0.0
 11
161.554648
 21
-137.55152
 31
0.0
  0
LINE
  5
60F
100
AcDbEntity
  8
0
  6
CONTINUOUS
 62
     0
100
AcDbLine
 10
160.50314
 20
-138.461607
 30
0.0
 11
161.161474
 21
-137.803273
 31
0.0
  0
LINE
  5
610
100
AcDbEntity
  8
0
  6
CONTINUOUS
 62
     0
100
AcDbLine
 10
160.361719
 20
-138.461607
 30
0.0
 11
161.143399
 21
-137.679927
 31
0.0
  0
LINE
  5
611
100
AcDbEntity
  8
0
  6
CONTINUOUS
 62
     0
100
AcDbLine
 10
160.220297
 20
-138.461607
 30
0.0
 11
161.092275
 21
-137.58963
 31
0.0
  0
LINE
  5
612
100
AcDbEntity
  8
0
  6
CONTINUOUS
 62
     0
100
AcDbLine
 10
160.078876
 20
-138.461607
 30
0.0
 11
161.019272
 21
-137.521211
 31
0.0
  0
LINE
  5
613
100
AcDbEntity
  8
0
  6
CONTINUOUS
 62
     0
100
AcDbLine
 10
159.937455
 20
-138.461607
 30
0.0
 11
160.442679
 21
-137.956383
 31
0.0
  0
LINE
  5
614
100
AcDbEntity
  8
0
  6
CONTINUOUS
 62
     0
100
AcDbLine
 10
160.492828
 20
-137.906233
 30
0.0
 11
160.923676
 21
-137.475385
 31
0.0
  0
LINE
  5
615
100
AcDbEntity
  8
0
  6
CONTINUOUS
 62
     0
100
AcDbLine
 10
159.796033
 20
-138.461607
 30
0.0
 11
160.301257
 21
-137.956383
 31
0.0
  0
LINE
  5
616
100
AcDbEntity
  8
0
  6
CONTINUOUS
 62
     0
100
AcDbLine
 10
160.492819
 20
-137.764822
 30
0.0
 11
160.794773
 21
-137.462867
 31
0.0
  0
LINE
  5
617
100
AcDbEntity
  8
0
  6
CONTINUOUS
 62
     0
100
AcDbLine
 10
159.654612
 20
-138.461607
 30
0.0
 11
160.159836
 21
-137.956383
 31
0.0
  0
LINE
  5
618
100
AcDbEntity
  8
0
  6
CONTINUOUS
 62
     0
100
AcDbLine
 10
159.51319
 20
-138.461607
 30
0.0
 11
160.018415
 21
-137.956383
 31
0.0
  0
LINE
  5
619
100
AcDbEntity
  8
0
  6
CONTINUOUS
 62
     0
100
AcDbLine
 10
159.371769
 20
-138.461607
 30
0.0
 11
159.876993
 21
-137.956383
 31
0.0
  0
LINE
  5
61A
100
AcDbEntity
  8
0
  6
CONTINUOUS
 62
     0
100
AcDbLine
 10
159.230348
 20
-138.461607
 30
0.0
 11
159.735572
 21
-137.956383
 31
0.0
  0
LINE
  5
61B
100
AcDbEntity
  8
0
  6
CONTINUOUS
 62
     0
100
AcDbLine
 10
159.088926
 20
-138.461607
 30
0.0
 11
159.594151
 21
-137.956383
 31
0.0
  0
LINE
  5
61C
100
AcDbEntity
  8
0
  6
CONTINUOUS
 62
     0
100
AcDbLine
 10
158.947505
 20
-138.461607
 30
0.0
 11
159.452729
 21
-137.956383
 31
0.0
  0
LINE
  5
61D
100
AcDbEntity
  8
0
  6
CONTINUOUS
 62
     0
100
AcDbLine
 10
158.806084
 20
-138.461607
 30
0.0
 11
159.311308
 21
-137.956383
 31
0.0
  0
LINE
  5
61E
100
AcDbEntity
  8
0
  6
CONTINUOUS
 62
     0
100
AcDbLine
 10
158.664662
 20
-138.461607
 30
0.0
 11
159.169887
 21
-137.956383
 31
0.0
  0
LINE
  5
61F
100
AcDbEntity
  8
0
  6
CONTINUOUS
 62
     0
100
AcDbLine
 10
158.523241
 20
-138.461607
 30
0.0
 11
159.028465
 21
-137.956383
 31
0.0
  0
LINE
  5
620
100
AcDbEntity
  8
0
  6
CONTINUOUS
 62
     0
100
AcDbLine
 10
158.382158
 20
-138.461269
 30
0.0
 11
158.887044
 21
-137.956383
 31
0.0
  0
LINE
  5
621
100
AcDbEntity
  8
0
  6
CONTINUOUS
 62
     0
100
AcDbLine
 10
158.272537
 20
-138.429469
 30
0.0
 11
158.745623
 21
-137.956383
 31
0.0
  0
LINE
  5
622
100
AcDbEntity
  8
0
  6
CONTINUOUS
 62
     0
100
AcDbLine
 10
158.196806
 20
-138.363778
 30
0.0
 11
158.604201
 21
-137.956383
 31
0.0
  0
LINE
  5
623
100
AcDbEntity
  8
0
  6
CONTINUOUS
 62
     0
100
AcDbLine
 10
158.15152
 20
-138.267643
 30
0.0
 11
158.46278
 21
-137.956383
 31
0.0
  0
LINE
  5
624
100
AcDbEntity
  8
0
  6
CONTINUOUS
 62
     0
100
AcDbLine
 10
158.162278
 20
-138.115464
 30
0.0
 11
158.30424
 21
-137.973502
 31
0.0
  0
ENDBLK
  5
625
100
AcDbEntity
  8
0
  6
ByBlock
 62
     0
100
AcDbBlockEnd
  0
BLOCK
  5
628
100
AcDbEntity
  8
0
  6
ByBlock
 62
     0
100
AcDbBlockBegin
  2
*X9
 70
     1
 10
0.0
 20
0.0
 30
0.0
  3
*X9
  1

  0
LINE
  5
629
100
AcDbEntity
  8
0
  6
CONTINUOUS
 62
     0
100
AcDbLine
 10
160.474032
 20
-141.319142
 30
0.0
 11
160.721276
 21
-141.071898
 31
0.0
  0
LINE
  5
62A
100
AcDbEntity
  8
0
  6
CONTINUOUS
 62
     0
100
AcDbLine
 10
160.297132
 20
-141.35462
 30
0.0
 11
160.694603
 21
-140.95715
 31
0.0
  0
LINE
  5
62B
100
AcDbEntity
  8
0
  6
CONTINUOUS
 62
     0
100
AcDbLine
 10
160.120233
 20
-141.390099
 30
0.0
 11
160.631589
 21
-140.878743
 31
0.0
  0
LINE
  5
62C
100
AcDbEntity
  8
0
  6
CONTINUOUS
 62
     0
100
AcDbLine
 10
159.943333
 20
-141.425577
 30
0.0
 11
160.537943
 21
-140.830967
 31
0.0
  0
LINE
  5
62D
100
AcDbEntity
  8
0
  6
CONTINUOUS
 62
     0
100
AcDbLine
 10
159.766433
 20
-141.461055
 30
0.0
 11
160.393392
 21
-140.834097
 31
0.0
  0
LINE
  5
62E
100
AcDbEntity
  8
0
  6
CONTINUOUS
 62
     0
100
AcDbLine
 10
159.589534
 20
-141.496534
 30
0.0
 11
160.219757
 21
-140.86631
 31
0.0
  0
LINE
  5
62F
100
AcDbEntity
  8
0
  6
CONTINUOUS
 62
     0
100
AcDbLine
 10
159.417459
 20
-141.527187
 30
0.0
 11
160.046123
 21
-140.898523
 31
0.0
  0
LINE
  5
630
100
AcDbEntity
  8
0
  6
CONTINUOUS
 62
     0
100
AcDbLine
 10
159.253244
 20
-141.549981
 30
0.0
 11
159.872489
 21
-140.930735
 31
0.0
  0
LINE
  5
631
100
AcDbEntity
  8
0
  6
CONTINUOUS
 62
     0
100
AcDbLine
 10
159.089029
 20
-141.572774
 30
0.0
 11
159.698855
 21
-140.962948
 31
0.0
  0
LINE
  5
632
100
AcDbEntity
  8
0
  6
CONTINUOUS
 62
     0
100
AcDbLine
 10
158.924814
 20
-141.595568
 30
0.0
 11
159.691519
 21
-140.828863
 31
0.0
  0
LINE
  5
633
100
AcDbEntity
  8
0
  6
CONTINUOUS
 62
     0
100
AcDbLine
 10
158.760599
 20
-141.618362
 30
0.0
 11
159.691519
 21
-140.687441
 31
0.0
  0
LINE
  5
634
100
AcDbEntity
  8
0
  6
CONTINUOUS
 62
     0
100
AcDbLine
 10
158.596384
 20
-141.641156
 30
0.0
 11
159.69152
 21
-140.546019
 31
0.0
  0
LINE
  5
635
100
AcDbEntity
  8
0
  6
CONTINUOUS
 62
     0
100
AcDbLine
 10
158.432168
 20
-141.663949
 30
0.0
 11
159.691521
 21
-140.404597
 31
0.0
  0
LINE
  5
636
100
AcDbEntity
  8
0
  6
CONTINUOUS
 62
     0
100
AcDbLine
 10
158.306037
 20
-141.648659
 30
0.0
 11
158.870671
 21
-141.084026
 31
0.0
  0
LINE
  5
637
100
AcDbEntity
  8
0
  6
CONTINUOUS
 62
     0
100
AcDbLine
 10
159.022268
 20
-140.932429
 30
0.0
 11
159.691522
 21
-140.263175
 31
0.0
  0
LINE
  5
638
100
AcDbEntity
  8
0
  6
CONTINUOUS
 62
     0
100
AcDbLine
 10
158.219626
 20
-141.593649
 30
0.0
 11
158.70998
 21
-141.103296
 31
0.0
  0
LINE
  5
639
100
AcDbEntity
  8
0
  6
CONTINUOUS
 62
     0
100
AcDbLine
 10
159.022267
 20
-140.791008
 30
0.0
 11
159.691523
 21
-140.121753
 31
0.0
  0
LINE
  5
63A
100
AcDbEntity
  8
0
  6
CONTINUOUS
 62
     0
100
AcDbLine
 10
158.161233
 20
-141.510621
 30
0.0
 11
158.549289
 21
-141.122565
 31
0.0
  0
LINE
  5
63B
100
AcDbEntity
  8
0
  6
CONTINUOUS
 62
     0
100
AcDbLine
 10
159.022267
 20
-140.649587
 30
0.0
 11
159.691523
 21
-139.980331
 31
0.0
  0
LINE
  5
63C
100
AcDbEntity
  8
0
  6
CONTINUOUS
 62
     0
100
AcDbLine
 10
160.295599
 20
-139.376254
 30
0.0
 11
160.451704
 21
-139.22015
 31
0.0
  0
LINE
  5
63D
100
AcDbEntity
  8
0
  6
CONTINUOUS
 62
     0
100
AcDbLine
 10
158.13889
 20
-141.391542
 30
0.0
 11
158.388598
 21
-141.141835
 31
0.0
  0
LINE
  5
63E
100
AcDbEntity
  8
0
  6
CONTINUOUS
 62
     0
100
AcDbLine
 10
159.022266
 20
-140.508166
 30
0.0
 11
159.691524
 21
-139.838908
 31
0.0
  0
LINE
  5
63F
100
AcDbEntity
  8
0
  6
CONTINUOUS
 62
     0
100
AcDbLine
 10
160.140843
 20
-139.38959
 30
0.0
 11
160.451734
 21
-139.078699
 31
0.0
  0
LINE
  5
640
100
AcDbEntity
  8
0
  6
CONTINUOUS
 62
     0
100
AcDbLine
 10
159.022266
 20
-140.366746
 30
0.0
 11
159.691525
 21
-139.697486
 31
0.0
  0
LINE
  5
641
100
AcDbEntity
  8
0
  6
CONTINUOUS
 62
     0
100
AcDbLine
 10
159.999421
 20
-139.38959
 30
0.0
 11
160.399062
 21
-138.989949
 31
0.0
  0
LINE
  5
642
100
AcDbEntity
  8
0
  6
CONTINUOUS
 62
     0
100
AcDbLine
 10
159.022265
 20
-140.225325
 30
0.0
 11
159.691526
 21
-139.556064
 31
0.0
  0
LINE
  5
643
100
AcDbEntity
  8
0
  6
CONTINUOUS
 62
     0
100
AcDbLine
 10
159.858
 20
-139.38959
 30
0.0
 11
160.316781
 21
-138.930809
 31
0.0
  0
LINE
  5
644
100
AcDbEntity
  8
0
  6
CONTINUOUS
 62
     0
100
AcDbLine
 10
159.022264
 20
-140.083904
 30
0.0
 11
159.691526
 21
-139.414642
 31
0.0
  0
LINE
  5
645
100
AcDbEntity
  8
0
  6
CONTINUOUS
 62
     0
100
AcDbLine
 10
159.716579
 20
-139.38959
 30
0.0
 11
160.196998
 21
-138.90917
 31
0.0
  0
LINE
  5
646
100
AcDbEntity
  8
0
  6
CONTINUOUS
 62
     0
100
AcDbLine
 10
159.022264
 20
-139.942483
 30
0.0
 11
160.055577
 21
-138.90917
 31
0.0
  0
LINE
  5
647
100
AcDbEntity
  8
0
  6
CONTINUOUS
 62
     0
100
AcDbLine
 10
159.022263
 20
-139.801063
 30
0.0
 11
159.914156
 21
-138.90917
 31
0.0
  0
LINE
  5
648
100
AcDbEntity
  8
0
  6
CONTINUOUS
 62
     0
100
AcDbLine
 10
159.022263
 20
-139.659642
 30
0.0
 11
159.772734
 21
-138.90917
 31
0.0
  0
LINE
  5
649
100
AcDbEntity
  8
0
  6
CONTINUOUS
 62
     0
100
AcDbLine
 10
159.022262
 20
-139.518221
 30
0.0
 11
159.631313
 21
-138.90917
 31
0.0
  0
LINE
  5
64A
100
AcDbEntity
  8
0
  6
CONTINUOUS
 62
     0
100
AcDbLine
 10
159.009472
 20
-139.38959
 30
0.0
 11
159.489892
 21
-138.90917
 31
0.0
  0
LINE
  5
64B
100
AcDbEntity
  8
0
  6
CONTINUOUS
 62
     0
100
AcDbLine
 10
158.86805
 20
-139.38959
 30
0.0
 11
159.34847
 21
-138.90917
 31
0.0
  0
LINE
  5
64C
100
AcDbEntity
  8
0
  6
CONTINUOUS
 62
     0
100
AcDbLine
 10
158.726629
 20
-139.38959
 30
0.0
 11
159.207049
 21
-138.90917
 31
0.0
  0
LINE
  5
64D
100
AcDbEntity
  8
0
  6
CONTINUOUS
 62
     0
100
AcDbLine
 10
158.585208
 20
-139.38959
 30
0.0
 11
159.065627
 21
-138.90917
 31
0.0
  0
LINE
  5
64E
100
AcDbEntity
  8
0
  6
CONTINUOUS
 62
     0
100
AcDbLine
 10
158.447869
 20
-139.385507
 30
0.0
 11
158.924206
 21
-138.90917
 31
0.0
  0
LINE
  5
64F
100
AcDbEntity
  8
0
  6
CONTINUOUS
 62
     0
100
AcDbLine
 10
158.34836
 20
-139.343595
 30
0.0
 11
158.782785
 21
-138.90917
 31
0.0
  0
LINE
  5
650
100
AcDbEntity
  8
0
  6
CONTINUOUS
 62
     0
100
AcDbLine
 10
158.279939
 20
-139.270595
 30
0.0
 11
158.641363
 21
-138.90917
 31
0.0
  0
LINE
  5
651
100
AcDbEntity
  8
0
  6
CONTINUOUS
 62
     0
100
AcDbLine
 10
158.244156
 20
-139.164956
 30
0.0
 11
158.499942
 21
-138.90917
 31
0.0
  0
ENDBLK
  5
652
100
AcDbEntity
  8
0
  6
ByBlock
 62
     0
100
AcDbBlockEnd
  0
BLOCK
  5
655
100
AcDbEntity
  8
0
  6
ByBlock
 62
     0
100
AcDbBlockBegin
  2
*X10
 70
     1
 10
0.0
 20
0.0
 30
0.0
  3
*X10
  1

  0
LINE
  5
656
100
AcDbEntity
  8
0
  6
CONTINUOUS
 62
     0
100
AcDbLine
 10
166.944299
 20
-141.778521
 30
0.0
 11
167.198035
 21
-141.524786
 31
0.0
  0
LINE
  5
657
100
AcDbEntity
  8
0
  6
CONTINUOUS
 62
     0
100
AcDbLine
 10
166.812737
 20
-141.768663
 30
0.0
 11
167.188176
 21
-141.393223
 31
0.0
  0
LINE
  5
658
100
AcDbEntity
  8
0
  6
CONTINUOUS
 62
     0
100
AcDbLine
 10
166.719076
 20
-141.720902
 30
0.0
 11
167.140375
 21
-141.299603
 31
0.0
  0
LINE
  5
659
100
AcDbEntity
  8
0
  6
CONTINUOUS
 62
     0
100
AcDbLine
 10
166.650408
 20
-141.648148
 30
0.0
 11
167.081977
 21
-141.21658
 31
0.0
  0
LINE
  5
65A
100
AcDbEntity
  8
0
  6
CONTINUOUS
 62
     0
100
AcDbLine
 10
166.593545
 20
-141.56359
 30
0.0
 11
167.023579
 21
-141.133556
 31
0.0
  0
LINE
  5
65B
100
AcDbEntity
  8
0
  6
CONTINUOUS
 62
     0
100
AcDbLine
 10
166.536643
 20
-141.47907
 30
0.0
 11
166.965181
 21
-141.050532
 31
0.0
  0
LINE
  5
65C
100
AcDbEntity
  8
0
  6
CONTINUOUS
 62
     0
100
AcDbLine
 10
166.46139
 20
-141.412902
 30
0.0
 11
166.906784
 21
-140.967509
 31
0.0
  0
LINE
  5
65D
100
AcDbEntity
  8
0
  6
CONTINUOUS
 62
     0
100
AcDbLine
 10
166.301754
 20
-141.431118
 30
0.0
 11
166.848386
 21
-140.884485
 31
0.0
  0
LINE
  5
65E
100
AcDbEntity
  8
0
  6
CONTINUOUS
 62
     0
100
AcDbLine
 10
166.142117
 20
-141.449333
 30
0.0
 11
166.789988
 21
-140.801462
 31
0.0
  0
LINE
  5
65F
100
AcDbEntity
  8
0
  6
CONTINUOUS
 62
     0
100
AcDbLine
 10
165.98248
 20
-141.467549
 30
0.0
 11
166.726121
 21
-140.723908
 31
0.0
  0
LINE
  5
660
100
AcDbEntity
  8
0
  6
CONTINUOUS
 62
     0
100
AcDbLine
 10
165.822843
 20
-141.485764
 30
0.0
 11
166.662045
 21
-140.646562
 31
0.0
  0
LINE
  5
661
100
AcDbEntity
  8
0
  6
CONTINUOUS
 62
     0
100
AcDbLine
 10
165.663206
 20
-141.50398
 30
0.0
 11
166.173528
 21
-140.993658
 31
0.0
  0
LINE
  5
662
100
AcDbEntity
  8
0
  6
CONTINUOUS
 62
     0
100
AcDbLine
 10
166.174852
 20
-140.992334
 30
0.0
 11
166.59797
 21
-140.569216
 31
0.0
  0
LINE
  5
663
100
AcDbEntity
  8
0
  6
CONTINUOUS
 62
     0
100
AcDbLine
 10
165.503569
 20
-141.522195
 30
0.0
 11
166.0141
 21
-141.011664
 31
0.0
  0
LINE
  5
664
100
AcDbEntity
  8
0
  6
CONTINUOUS
 62
     0
100
AcDbLine
 10
166.109742
 20
-140.916022
 30
0.0
 11
166.533895
 21
-140.49187
 31
0.0
  0
LINE
  5
665
100
AcDbEntity
  8
0
  6
CONTINUOUS
 62
     0
100
AcDbLine
 10
166.937649
 20
-140.088116
 30
0.0
 11
167.176152
 21
-139.849612
 31
0.0
  0
LINE
  5
666
100
AcDbEntity
  8
0
  6
CONTINUOUS
 62
     0
100
AcDbLine
 10
165.343932
 20
-141.540411
 30
0.0
 11
165.854673
 21
-141.02967
 31
0.0
  0
LINE
  5
667
100
AcDbEntity
  8
0
  6
CONTINUOUS
 62
     0
100
AcDbLine
 10
166.044632
 20
-140.839711
 30
0.0
 11
166.469819
 21
-140.414524
 31
0.0
  0
LINE
  5
668
100
AcDbEntity
  8
0
  6
CONTINUOUS
 62
     0
100
AcDbLine
 10
166.796223
 20
-140.08812
 30
0.0
 11
167.145301
 21
-139.739042
 31
0.0
  0
LINE
  5
669
100
AcDbEntity
  8
0
  6
CONTINUOUS
 62
     0
100
AcDbLine
 10
165.184295
 20
-141.558626
 30
0.0
 11
165.695245
 21
-141.047676
 31
0.0
  0
LINE
  5
66A
100
AcDbEntity
  8
0
  6
CONTINUOUS
 62
     0
100
AcDbLine
 10
165.979523
 20
-140.763399
 30
0.0
 11
166.405744
 21
-140.337178
 31
0.0
  0
LINE
  5
66B
100
AcDbEntity
  8
0
  6
CONTINUOUS
 62
     0
100
AcDbLine
 10
166.654802
 20
-140.08812
 30
0.0
 11
167.078947
 21
-139.663975
 31
0.0
  0
LINE
  5
66C
100
AcDbEntity
  8
0
  6
CONTINUOUS
 62
     0
100
AcDbLine
 10
165.024659
 20
-141.576842
 30
0.0
 11
165.535818
 21
-141.065683
 31
0.0
  0
LINE
  5
66D
100
AcDbEntity
  8
0
  6
CONTINUOUS
 62
     0
100
AcDbLine
 10
165.915047
 20
-140.686453
 30
0.0
 11
166.334999
 21
-140.266501
 31
0.0
  0
LINE
  5
66E
100
AcDbEntity
  8
0
  6
CONTINUOUS
 62
     0
100
AcDbLine
 10
166.513381
 20
-140.08812
 30
0.0
 11
166.980444
 21
-139.621057
 31
0.0
  0
LINE
  5
66F
100
AcDbEntity
  8
0
  6
CONTINUOUS
 62
     0
100
AcDbLine
 10
164.865022
 20
-141.595057
 30
0.0
 11
165.37639
 21
-141.083689
 31
0.0
  0
LINE
  5
670
100
AcDbEntity
  8
0
  6
CONTINUOUS
 62
     0
100
AcDbLine
 10
165.869123
 20
-140.590956
 30
0.0
 11
166.239503
 21
-140.220576
 31
0.0
  0
LINE
  5
671
100
AcDbEntity
  8
0
  6
CONTINUOUS
 62
     0
100
AcDbLine
 10
166.371959
 20
-140.08812
 30
0.0
 11
166.843123
 21
-139.616956
 31
0.0
  0
LINE
  5
672
100
AcDbEntity
  8
0
  6
CONTINUOUS
 62
     0
100
AcDbLine
 10
164.713085
 20
-141.605572
 30
0.0
 11
165.216962
 21
-141.101695
 31
0.0
  0
LINE
  5
673
100
AcDbEntity
  8
0
  6
CONTINUOUS
 62
     0
100
AcDbLine
 10
165.863183
 20
-140.455474
 30
0.0
 11
166.104021
 21
-140.214637
 31
0.0
  0
LINE
  5
674
100
AcDbEntity
  8
0
  6
CONTINUOUS
 62
     0
100
AcDbLine
 10
166.230538
 20
-140.08812
 30
0.0
 11
166.701702
 21
-139.616956
 31
0.0
  0
LINE
  5
675
100
AcDbEntity
  8
0
  6
CONTINUOUS
 62
     0
100
AcDbLine
 10
164.561609
 20
-141.615627
 30
0.0
 11
165.063032
 21
-141.114204
 31
0.0
  0
LINE
  5
676
100
AcDbEntity
  8
0
  6
CONTINUOUS
 62
     0
100
AcDbLine
 10
166.089117
 20
-140.08812
 30
0.0
 11
166.560281
 21
-139.616956
 31
0.0
  0
LINE
  5
677
100
AcDbEntity
  8
0
  6
CONTINUOUS
 62
     0
100
AcDbLine
 10
164.410134
 20
-141.625681
 30
0.0
 11
164.909972
 21
-141.125843
 31
0.0
  0
LINE
  5
678
100
AcDbEntity
  8
0
  6
CONTINUOUS
 62
     0
100
AcDbLine
 10
165.947695
 20
-140.08812
 30
0.0
 11
166.418859
 21
-139.616956
 31
0.0
  0
LINE
  5
679
100
AcDbEntity
  8
0
  6
CONTINUOUS
 62
     0
100
AcDbLine
 10
164.258658
 20
-141.635736
 30
0.0
 11
164.756912
 21
-141.137482
 31
0.0
  0
LINE
  5
67A
100
AcDbEntity
  8
0
  6
CONTINUOUS
 62
     0
100
AcDbLine
 10
165.806274
 20
-140.08812
 30
0.0
 11
166.277438
 21
-139.616956
 31
0.0
  0
LINE
  5
67B
100
AcDbEntity
  8
0
  6
CONTINUOUS
 62
     0
100
AcDbLine
 10
164.107182
 20
-141.64579
 30
0.0
 11
164.603851
 21
-141.149121
 31
0.0
  0
LINE
  5
67C
100
AcDbEntity
  8
0
  6
CONTINUOUS
 62
     0
100
AcDbLine
 10
165.664852
 20
-140.08812
 30
0.0
 11
166.136017
 21
-139.616956
 31
0.0
  0
LINE
  5
67D
100
AcDbEntity
  8
0
  6
CONTINUOUS
 62
     0
100
AcDbLine
 10
163.955706
 20
-141.655845
 30
0.0
 11
164.450791
 21
-141.16076
 31
0.0
  0
LINE
  5
67E
100
AcDbEntity
  8
0
  6
CONTINUOUS
 62
     0
100
AcDbLine
 10
165.523431
 20
-140.08812
 30
0.0
 11
165.994595
 21
-139.616956
 31
0.0
  0
LINE
  5
67F
100
AcDbEntity
  8
0
  6
CONTINUOUS
 62
     0
100
AcDbLine
 10
163.80423
 20
-141.665899
 30
0.0
 11
164.29773
 21
-141.172399
 31
0.0
  0
LINE
  5
680
100
AcDbEntity
  8
0
  6
CONTINUOUS
 62
     0
100
AcDbLine
 10
165.38201
 20
-140.08812
 30
0.0
 11
165.853174
 21
-139.616956
 31
0.0
  0
LINE
  5
681
100
AcDbEntity
  8
0
  6
CONTINUOUS
 62
     0
100
AcDbLine
 10
163.652755
 20
-141.675954
 30
0.0
 11
164.280062
 21
-141.048646
 31
0.0
  0
LINE
  5
682
100
AcDbEntity
  8
0
  6
CONTINUOUS
 62
     0
100
AcDbLine
 10
165.240588
 20
-140.08812
 30
0.0
 11
165.711753
 21
-139.616956
 31
0.0
  0
LINE
  5
683
100
AcDbEntity
  8
0
  6
CONTINUOUS
 62
     0
100
AcDbLine
 10
163.501279
 20
-141.686008
 30
0.0
 11
164.438431
 21
-140.748856
 31
0.0
  0
LINE
  5
684
100
AcDbEntity
  8
0
  6
CONTINUOUS
 62
     0
100
AcDbLine
 10
165.099167
 20
-140.08812
 30
0.0
 11
165.570331
 21
-139.616956
 31
0.0
  0
LINE
  5
685
100
AcDbEntity
  8
0
  6
CONTINUOUS
 62
     0
100
AcDbLine
 10
163.349803
 20
-141.696062
 30
0.0
 11
164.557815
 21
-140.48805
 31
0.0
  0
LINE
  5
686
100
AcDbEntity
  8
0
  6
CONTINUOUS
 62
     0
100
AcDbLine
 10
164.957746
 20
-140.08812
 30
0.0
 11
165.42891
 21
-139.616956
 31
0.0
  0
LINE
  5
687
100
AcDbEntity
  8
0
  6
CONTINUOUS
 62
     0
100
AcDbLine
 10
163.199285
 20
-141.705159
 30
0.0
 11
164.656767
 21
-140.247677
 31
0.0
  0
LINE
  5
688
100
AcDbEntity
  8
0
  6
CONTINUOUS
 62
     0
100
AcDbLine
 10
164.816324
 20
-140.08812
 30
0.0
 11
165.287489
 21
-139.616956
 31
0.0
  0
LINE
  5
689
100
AcDbEntity
  8
0
  6
CONTINUOUS
 62
     0
100
AcDbLine
 10
163.086954
 20
-141.676069
 30
0.0
 11
165.146067
 21
-139.616956
 31
0.0
  0
LINE
  5
68A
100
AcDbEntity
  8
0
  6
CONTINUOUS
 62
     0
100
AcDbLine
 10
163.009178
 20
-141.612423
 30
0.0
 11
165.004646
 21
-139.616956
 31
0.0
  0
LINE
  5
68B
100
AcDbEntity
  8
0
  6
CONTINUOUS
 62
     0
100
AcDbLine
 10
162.961153
 20
-141.519027
 30
0.0
 11
163.263474
 21
-141.216706
 31
0.0
  0
LINE
  5
68C
100
AcDbEntity
  8
0
  6
CONTINUOUS
 62
     0
100
AcDbLine
 10
163.590571
 20
-140.889609
 30
0.0
 11
164.863224
 21
-139.616956
 31
0.0
  0
LINE
  5
68D
100
AcDbEntity
  8
0
  6
CONTINUOUS
 62
     0
100
AcDbLine
 10
162.98737
 20
-141.351388
 30
0.0
 11
163.085116
 21
-141.253643
 31
0.0
  0
LINE
  5
68E
100
AcDbEntity
  8
0
  6
CONTINUOUS
 62
     0
100
AcDbLine
 10
163.780146
 20
-140.558613
 30
0.0
 11
164.721803
 21
-139.616956
 31
0.0
  0
LINE
  5
68F
100
AcDbEntity
  8
0
  6
CONTINUOUS
 62
     0
100
AcDbLine
 10
163.90752
 20
-140.289817
 30
0.0
 11
164.580382
 21
-139.616956
 31
0.0
  0
LINE
  5
690
100
AcDbEntity
  8
0
  6
CONTINUOUS
 62
     0
100
AcDbLine
 10
163.967796
 20
-140.08812
 30
0.0
 11
164.43896
 21
-139.616956
 31
0.0
  0
LINE
  5
691
100
AcDbEntity
  8
0
  6
CONTINUOUS
 62
     0
100
AcDbLine
 10
163.826375
 20
-140.08812
 30
0.0
 11
164.297539
 21
-139.616956
 31
0.0
  0
LINE
  5
692
100
AcDbEntity
  8
0
  6
CONTINUOUS
 62
     0
100
AcDbLine
 10
163.684953
 20
-140.08812
 30
0.0
 11
164.156118
 21
-139.616956
 31
0.0
  0
LINE
  5
693
100
AcDbEntity
  8
0
  6
CONTINUOUS
 62
     0
100
AcDbLine
 10
163.543532
 20
-140.08812
 30
0.0
 11
164.014696
 21
-139.616956
 31
0.0
  0
LINE
  5
694
100
AcDbEntity
  8
0
  6
CONTINUOUS
 62
     0
100
AcDbLine
 10
163.402111
 20
-140.08812
 30
0.0
 11
163.873275
 21
-139.616956
 31
0.0
  0
LINE
  5
695
100
AcDbEntity
  8
0
  6
CONTINUOUS
 62
     0
100
AcDbLine
 10
163.260689
 20
-140.08812
 30
0.0
 11
163.731854
 21
-139.616956
 31
0.0
  0
LINE
  5
696
100
AcDbEntity
  8
0
  6
CONTINUOUS
 62
     0
100
AcDbLine
 10
163.128469
 20
-140.078918
 30
0.0
 11
163.590432
 21
-139.616956
 31
0.0
  0
LINE
  5
697
100
AcDbEntity
  8
0
  6
CONTINUOUS
 62
     0
100
AcDbLine
 10
163.03677
 20
-140.029196
 30
0.0
 11
163.449011
 21
-139.616956
 31
0.0
  0
LINE
  5
698
100
AcDbEntity
  8
0
  6
CONTINUOUS
 62
     0
100
AcDbLine
 10
162.976211
 20
-139.948334
 30
0.0
 11
163.30759
 21
-139.616956
 31
0.0
  0
LINE
  5
699
100
AcDbEntity
  8
0
  6
CONTINUOUS
 62
     0
100
AcDbLine
 10
162.956169
 20
-139.826954
 30
0.0
 11
163.164286
 21
-139.618838
 31
0.0
  0
ENDBLK
  5
69A
100
AcDbEntity
  8
0
  6
ByBlock
 62
     0
100
AcDbBlockEnd
  0
BLOCK
  5
69D
100
AcDbEntity
  8
0
  6
ByBlock
 62
     0
100
AcDbBlockBegin
  2
*X11
 70
     1
 10
0.0
 20
0.0
 30
0.0
  3
*X11
  1

  0
LINE
  5
69E
100
AcDbEntity
  8
0
  6
CONTINUOUS
 62
     0
100
AcDbLine
 10
166.916281
 20
-138.978112
 30
0.0
 11
167.233573
 21
-138.66082
 31
0.0
  0
LINE
  5
69F
100
AcDbEntity
  8
0
  6
CONTINUOUS
 62
     0
100
AcDbLine
 10
166.80336
 20
-138.949612
 30
0.0
 11
167.205082
 21
-138.54789
 31
0.0
  0
LINE
  5
6A0
100
AcDbEntity
  8
0
  6
CONTINUOUS
 62
     0
100
AcDbLine
 10
166.447937
 20
-139.163614
 30
0.0
 11
166.612031
 21
-138.999519
 31
0.0
  0
LINE
  5
6A1
100
AcDbEntity
  8
0
  6
CONTINUOUS
 62
     0
100
AcDbLine
 10
166.707011
 20
-138.90454
 30
0.0
 11
167.146873
 21
-138.464677
 31
0.0
  0
LINE
  5
6A2
100
AcDbEntity
  8
0
  6
CONTINUOUS
 62
     0
100
AcDbLine
 10
166.300138
 20
-139.169992
 30
0.0
 11
166.603605
 21
-138.866524
 31
0.0
  0
LINE
  5
6A3
100
AcDbEntity
  8
0
  6
CONTINUOUS
 62
     0
100
AcDbLine
 10
166.610662
 20
-138.859468
 30
0.0
 11
167.064548
 21
-138.405581
 31
0.0
  0
LINE
  5
6A4
100
AcDbEntity
  8
0
  6
CONTINUOUS
 62
     0
100
AcDbLine
 10
166.158716
 20
-139.169992
 30
0.0
 11
166.965271
 21
-138.363437
 31
0.0
  0
LINE
  5
6A5
100
AcDbEntity
  8
0
  6
CONTINUOUS
 62
     0
100
AcDbLine
 10
166.017295
 20
-139.169992
 30
0.0
 11
166.86603
 21
-138.321256
 31
0.0
  0
LINE
  5
6A6
100
AcDbEntity
  8
0
  6
CONTINUOUS
 62
     0
100
AcDbLine
 10
165.875874
 20
-139.169992
 30
0.0
 11
166.32283
 21
-138.723036
 31
0.0
  0
LINE
  5
6A7
100
AcDbEntity
  8
0
  6
CONTINUOUS
 62
     0
100
AcDbLine
 10
166.327019
 20
-138.718847
 30
0.0
 11
166.76679
 21
-138.279076
 31
0.0
  0
LINE
  5
6A8
100
AcDbEntity
  8
0
  6
CONTINUOUS
 62
     0
100
AcDbLine
 10
165.734452
 20
-139.169992
 30
0.0
 11
166.181408
 21
-138.723036
 31
0.0
  0
LINE
  5
6A9
100
AcDbEntity
  8
0
  6
CONTINUOUS
 62
     0
100
AcDbLine
 10
166.235817
 20
-138.668627
 30
0.0
 11
166.667549
 21
-138.236895
 31
0.0
  0
LINE
  5
6AA
100
AcDbEntity
  8
0
  6
CONTINUOUS
 62
     0
100
AcDbLine
 10
165.593031
 20
-139.169992
 30
0.0
 11
166.039987
 21
-138.723035
 31
0.0
  0
LINE
  5
6AB
100
AcDbEntity
  8
0
  6
CONTINUOUS
 62
     0
100
AcDbLine
 10
166.144615
 20
-138.618408
 30
0.0
 11
166.568309
 21
-138.194714
 31
0.0
  0
LINE
  5
6AC
100
AcDbEntity
  8
0
  6
CONTINUOUS
 62
     0
100
AcDbLine
 10
165.45161
 20
-139.169992
 30
0.0
 11
165.898566
 21
-138.723035
 31
0.0
  0
LINE
  5
6AD
100
AcDbEntity
  8
0
  6
CONTINUOUS
 62
     0
100
AcDbLine
 10
166.053413
 20
-138.568188
 30
0.0
 11
166.469068
 21
-138.152533
 31
0.0
  0
LINE
  5
6AE
100
AcDbEntity
  8
0
  6
CONTINUOUS
 62
     0
100
AcDbLine
 10
165.310188
 20
-139.169992
 30
0.0
 11
165.757145
 21
-138.723035
 31
0.0
  0
LINE
  5
6AF
100
AcDbEntity
  8
0
  6
CONTINUOUS
 62
     0
100
AcDbLine
 10
165.962212
 20
-138.517968
 30
0.0
 11
166.369827
 21
-138.110353
 31
0.0
  0
LINE
  5
6B0
100
AcDbEntity
  8
0
  6
CONTINUOUS
 62
     0
100
AcDbLine
 10
165.168767
 20
-139.169992
 30
0.0
 11
165.615724
 21
-138.723035
 31
0.0
  0
LINE
  5
6B1
100
AcDbEntity
  8
0
  6
CONTINUOUS
 62
     0
100
AcDbLine
 10
165.87101
 20
-138.467749
 30
0.0
 11
166.270587
 21
-138.068172
 31
0.0
  0
LINE
  5
6B2
100
AcDbEntity
  8
0
  6
CONTINUOUS
 62
     0
100
AcDbLine
 10
165.027346
 20
-139.169992
 30
0.0
 11
165.474303
 21
-138.723034
 31
0.0
  0
LINE
  5
6B3
100
AcDbEntity
  8
0
  6
CONTINUOUS
 62
     0
100
AcDbLine
 10
165.779808
 20
-138.417529
 30
0.0
 11
166.172872
 21
-138.024465
 31
0.0
  0
LINE
  5
6B4
100
AcDbEntity
  8
0
  6
CONTINUOUS
 62
     0
100
AcDbLine
 10
164.885924
 20
-139.169992
 30
0.0
 11
165.332882
 21
-138.723034
 31
0.0
  0
LINE
  5
6B5
100
AcDbEntity
  8
0
  6
CONTINUOUS
 62
     0
100
AcDbLine
 10
165.689509
 20
-138.366407
 30
0.0
 11
166.082318
 21
-137.973598
 31
0.0
  0
LINE
  5
6B6
100
AcDbEntity
  8
0
  6
CONTINUOUS
 62
     0
100
AcDbLine
 10
164.744503
 20
-139.169992
 30
0.0
 11
165.191461
 21
-138.723034
 31
0.0
  0
LINE
  5
6B7
100
AcDbEntity
  8
0
  6
CONTINUOUS
 62
     0
100
AcDbLine
 10
165.602097
 20
-138.312398
 30
0.0
 11
165.991763
 21
-137.922732
 31
0.0
  0
LINE
  5
6B8
100
AcDbEntity
  8
0
  6
CONTINUOUS
 62
     0
100
AcDbLine
 10
164.603081
 20
-139.169992
 30
0.0
 11
165.050039
 21
-138.723034
 31
0.0
  0
LINE
  5
6B9
100
AcDbEntity
  8
0
  6
CONTINUOUS
 62
     0
100
AcDbLine
 10
165.514684
 20
-138.258389
 30
0.0
 11
165.901208
 21
-137.871865
 31
0.0
  0
LINE
  5
6BA
100
AcDbEntity
  8
0
  6
CONTINUOUS
 62
     0
100
AcDbLine
 10
164.46166
 20
-139.169992
 30
0.0
 11
164.908618
 21
-138.723034
 31
0.0
  0
LINE
  5
6BB
100
AcDbEntity
  8
0
  6
CONTINUOUS
 62
     0
100
AcDbLine
 10
165.427271
 20
-138.204381
 30
0.0
 11
165.810654
 21
-137.820998
 31
0.0
  0
LINE
  5
6BC
100
AcDbEntity
  8
0
  6
CONTINUOUS
 62
     0
100
AcDbLine
 10
164.320239
 20
-139.169992
 30
0.0
 11
164.767197
 21
-138.723033
 31
0.0
  0
LINE
  5
6BD
100
AcDbEntity
  8
0
  6
CONTINUOUS
 62
     0
100
AcDbLine
 10
165.339858
 20
-138.150372
 30
0.0
 11
165.720099
 21
-137.770131
 31
0.0
  0
LINE
  5
6BE
100
AcDbEntity
  8
0
  6
CONTINUOUS
 62
     0
100
AcDbLine
 10
164.178817
 20
-139.169992
 30
0.0
 11
164.625776
 21
-138.723033
 31
0.0
  0
LINE
  5
6BF
100
AcDbEntity
  8
0
  6
CONTINUOUS
 62
     0
100
AcDbLine
 10
165.252446
 20
-138.096364
 30
0.0
 11
165.629545
 21
-137.719264
 31
0.0
  0
LINE
  5
6C0
100
AcDbEntity
  8
0
  6
CONTINUOUS
 62
     0
100
AcDbLine
 10
164.037396
 20
-139.169992
 30
0.0
 11
164.484355
 21
-138.723033
 31
0.0
  0
LINE
  5
6C1
100
AcDbEntity
  8
0
  6
CONTINUOUS
 62
     0
100
AcDbLine
 10
165.165033
 20
-138.042355
 30
0.0
 11
165.53899
 21
-137.668398
 31
0.0
  0
LINE
  5
6C2
100
AcDbEntity
  8
0
  6
CONTINUOUS
 62
     0
100
AcDbLine
 10
163.895975
 20
-139.169992
 30
0.0
 11
164.342934
 21
-138.723033
 31
0.0
  0
LINE
  5
6C3
100
AcDbEntity
  8
0
  6
CONTINUOUS
 62
     0
100
AcDbLine
 10
165.074059
 20
-137.991907
 30
0.0
 11
165.448436
 21
-137.617531
 31
0.0
  0
LINE
  5
6C4
100
AcDbEntity
  8
0
  6
CONTINUOUS
 62
     0
100
AcDbLine
 10
163.754553
 20
-139.169992
 30
0.0
 11
164.201513
 21
-138.723032
 31
0.0
  0
LINE
  5
6C5
100
AcDbEntity
  8
0
  6
CONTINUOUS
 62
     0
100
AcDbLine
 10
164.6932
 20
-138.231345
 30
0.0
 11
165.351801
 21
-137.572744
 31
0.0
  0
LINE
  5
6C6
100
AcDbEntity
  8
0
  6
CONTINUOUS
 62
     0
100
AcDbLine
 10
163.640068
 20
-139.143056
 30
0.0
 11
164.060092
 21
-138.723032
 31
0.0
  0
LINE
  5
6C7
100
AcDbEntity
  8
0
  6
CONTINUOUS
 62
     0
100
AcDbLine
 10
164.339126
 20
-138.443998
 30
0.0
 11
165.242509
 21
-137.540615
 31
0.0
  0
LINE
  5
6C8
100
AcDbEntity
  8
0
  6
CONTINUOUS
 62
     0
100
AcDbLine
 10
163.564878
 20
-139.076825
 30
0.0
 11
163.91867
 21
-138.723032
 31
0.0
  0
LINE
  5
6C9
100
AcDbEntity
  8
0
  6
CONTINUOUS
 62
     0
100
AcDbLine
 10
164.032815
 20
-138.608887
 30
0.0
 11
165.133217
 21
-137.508486
 31
0.0
  0
LINE
  5
6CA
100
AcDbEntity
  8
0
  6
CONTINUOUS
 62
     0
100
AcDbLine
 10
163.524832
 20
-138.975449
 30
0.0
 11
164.987624
 21
-137.512657
 31
0.0
  0
LINE
  5
6CB
100
AcDbEntity
  8
0
  6
CONTINUOUS
 62
     0
100
AcDbLine
 10
163.477545
 20
-138.881315
 30
0.0
 11
164.790404
 21
-137.568456
 31
0.0
  0
LINE
  5
6CC
100
AcDbEntity
  8
0
  6
CONTINUOUS
 62
     0
100
AcDbLine
 10
163.244889
 20
-138.972549
 30
0.0
 11
164.496169
 21
-137.721269
 31
0.0
  0
LINE
  5
6CD
100
AcDbEntity
  8
0
  6
CONTINUOUS
 62
     0
100
AcDbLine
 10
163.1113
 20
-138.964717
 30
0.0
 11
164.176852
 21
-137.899165
 31
0.0
  0
LINE
  5
6CE
100
AcDbEntity
  8
0
  6
CONTINUOUS
 62
     0
100
AcDbLine
 10
163.017086
 20
-138.917509
 30
0.0
 11
163.875056
 21
-138.05954
 31
0.0
  0
LINE
  5
6CF
100
AcDbEntity
  8
0
  6
CONTINUOUS
 62
     0
100
AcDbLine
 10
162.948282
 20
-138.844892
 30
0.0
 11
163.623958
 21
-138.169216
 31
0.0
  0
LINE
  5
6D0
100
AcDbEntity
  8
0
  6
CONTINUOUS
 62
     0
100
AcDbLine
 10
162.905705
 20
-138.746047
 30
0.0
 11
163.372861
 21
-138.278892
 31
0.0
  0
LINE
  5
6D1
100
AcDbEntity
  8
0
  6
CONTINUOUS
 62
     0
100
AcDbLine
 10
162.908847
 20
-138.601484
 30
0.0
 11
163.121763
 21
-138.388568
 31
0.0
  0
ENDBLK
  5
6D2
100
AcDbEntity
  8
0
  6
ByBlock
 62
     0
100
AcDbBlockEnd
  0
BLOCK
  5
6D5
100
AcDbEntity
  8
0
  6
ByBlock
 62
     0
100
AcDbBlockBegin
  2
*X12
 70
     1
 10
0.0
 20
0.0
 30
0.0
  3
*X12
  1

  0
LINE
  5
6D6
100
AcDbEntity
  8
0
  6
CONTINUOUS
 62
     0
100
AcDbLine
 10
154.35601
 20
-141.78031
 30
0.0
 11
154.530941
 21
-141.605379
 31
0.0
  0
LINE
  5
6D7
100
AcDbEntity
  8
0
  6
CONTINUOUS
 62
     0
100
AcDbLine
 10
154.191996
 20
-141.802903
 30
0.0
 11
154.536204
 21
-141.458695
 31
0.0
  0
LINE
  5
6D8
100
AcDbEntity
  8
0
  6
CONTINUOUS
 62
     0
100
AcDbLine
 10
154.074052
 20
-141.779425
 30
0.0
 11
154.536203
 21
-141.317275
 31
0.0
  0
LINE
  5
6D9
100
AcDbEntity
  8
0
  6
CONTINUOUS
 62
     0
100
AcDbLine
 10
153.980472
 20
-141.731583
 30
0.0
 11
154.536202
 21
-141.175854
 31
0.0
  0
LINE
  5
6DA
100
AcDbEntity
  8
0
  6
CONTINUOUS
 62
     0
100
AcDbLine
 10
153.919023
 20
-141.651612
 30
0.0
 11
154.536201
 21
-141.034434
 31
0.0
  0
LINE
  5
6DB
100
AcDbEntity
  8
0
  6
CONTINUOUS
 62
     0
100
AcDbLine
 10
153.89921
 20
-141.530003
 30
0.0
 11
154.5362
 21
-140.893013
 31
0.0
  0
LINE
  5
6DC
100
AcDbEntity
  8
0
  6
CONTINUOUS
 62
     0
100
AcDbLine
 10
153.899211
 20
-141.388581
 30
0.0
 11
154.536199
 21
-140.751593
 31
0.0
  0
LINE
  5
6DD
100
AcDbEntity
  8
0
  6
CONTINUOUS
 62
     0
100
AcDbLine
 10
153.899211
 20
-141.247159
 30
0.0
 11
154.536198
 21
-140.610173
 31
0.0
  0
LINE
  5
6DE
100
AcDbEntity
  8
0
  6
CONTINUOUS
 62
     0
100
AcDbLine
 10
153.899212
 20
-141.105737
 30
0.0
 11
154.536197
 21
-140.468752
 31
0.0
  0
LINE
  5
6DF
100
AcDbEntity
  8
0
  6
CONTINUOUS
 62
     0
100
AcDbLine
 10
153.899213
 20
-140.964315
 30
0.0
 11
154.536196
 21
-140.327332
 31
0.0
  0
LINE
  5
6E0
100
AcDbEntity
  8
0
  6
CONTINUOUS
 62
     0
100
AcDbLine
 10
153.899214
 20
-140.822892
 30
0.0
 11
154.536195
 21
-140.185912
 31
0.0
  0
LINE
  5
6E1
100
AcDbEntity
  8
0
  6
CONTINUOUS
 62
     0
100
AcDbLine
 10
153.899215
 20
-140.68147
 30
0.0
 11
154.536194
 21
-140.044491
 31
0.0
  0
LINE
  5
6E2
100
AcDbEntity
  8
0
  6
CONTINUOUS
 62
     0
100
AcDbLine
 10
154.797106
 20
-139.783579
 30
0.0
 11
154.948304
 21
-139.632381
 31
0.0
  0
LINE
  5
6E3
100
AcDbEntity
  8
0
  6
CONTINUOUS
 62
     0
100
AcDbLine
 10
153.899216
 20
-140.540048
 30
0.0
 11
154.536193
 21
-139.903071
 31
0.0
  0
LINE
  5
6E4
100
AcDbEntity
  8
0
  6
CONTINUOUS
 62
     0
100
AcDbLine
 10
154.663697
 20
-139.775567
 30
0.0
 11
154.94035
 21
-139.498914
 31
0.0
  0
LINE
  5
6E5
100
AcDbEntity
  8
0
  6
CONTINUOUS
 62
     0
100
AcDbLine
 10
153.899217
 20
-140.398626
 30
0.0
 11
154.536192
 21
-139.76165
 31
0.0
  0
LINE
  5
6E6
100
AcDbEntity
  8
0
  6
CONTINUOUS
 62
     0
100
AcDbLine
 10
154.582332
 20
-139.715511
 30
0.0
 11
154.892228
 21
-139.405614
 31
0.0
  0
LINE
  5
6E7
100
AcDbEntity
  8
0
  6
CONTINUOUS
 62
     0
100
AcDbLine
 10
153.899217
 20
-140.257204
 30
0.0
 11
154.843303
 21
-139.313118
 31
0.0
  0
LINE
  5
6E8
100
AcDbEntity
  8
0
  6
CONTINUOUS
 62
     0
100
AcDbLine
 10
153.47759
 20
-140.537409
 30
0.0
 11
153.794754
 21
-140.220246
 31
0.0
  0
LINE
  5
6E9
100
AcDbEntity
  8
0
  6
CONTINUOUS
 62
     0
100
AcDbLine
 10
153.899218
 20
-140.115781
 30
0.0
 11
154.794379
 21
-139.220621
 31
0.0
  0
LINE
  5
6EA
100
AcDbEntity
  8
0
  6
CONTINUOUS
 62
     0
100
AcDbLine
 10
153.39166
 20
-140.481919
 30
0.0
 11
154.745454
 21
-139.128124
 31
0.0
  0
LINE
  5
6EB
100
AcDbEntity
  8
0
  6
CONTINUOUS
 62
     0
100
AcDbLine
 10
153.334445
 20
-140.397711
 30
0.0
 11
154.694198
 21
-139.037959
 31
0.0
  0
LINE
  5
6EC
100
AcDbEntity
  8
0
  6
CONTINUOUS
 62
     0
100
AcDbLine
 10
153.277231
 20
-140.313504
 30
0.0
 11
154.64166
 21
-138.949075
 31
0.0
  0
LINE
  5
6ED
100
AcDbEntity
  8
0
  6
CONTINUOUS
 62
     0
100
AcDbLine
 10
153.298003
 20
-140.151311
 30
0.0
 11
154.589123
 21
-138.860191
 31
0.0
  0
LINE
  5
6EE
100
AcDbEntity
  8
0
  6
CONTINUOUS
 62
     0
100
AcDbLine
 10
154.740929
 20
-138.708385
 30
0.0
 11
154.871999
 21
-138.577315
 31
0.0
  0
LINE
  5
6EF
100
AcDbEntity
  8
0
  6
CONTINUOUS
 62
     0
100
AcDbLine
 10
153.382738
 20
-139.925155
 30
0.0
 11
154.536586
 21
-138.771307
 31
0.0
  0
LINE
  5
6F0
100
AcDbEntity
  8
0
  6
CONTINUOUS
 62
     0
100
AcDbLine
 10
154.592325
 20
-138.715568
 30
0.0
 11
154.877898
 21
-138.429995
 31
0.0
  0
LINE
  5
6F1
100
AcDbEntity
  8
0
  6
CONTINUOUS
 62
     0
100
AcDbLine
 10
153.524634
 20
-139.641837
 30
0.0
 11
154.836872
 21
-138.329599
 31
0.0
  0
LINE
  5
6F2
100
AcDbEntity
  8
0
  6
CONTINUOUS
 62
     0
100
AcDbLine
 10
153.653411
 20
-139.371639
 30
0.0
 11
154.756769
 21
-138.268281
 31
0.0
  0
LINE
  5
6F3
100
AcDbEntity
  8
0
  6
CONTINUOUS
 62
     0
100
AcDbLine
 10
153.725104
 20
-139.158525
 30
0.0
 11
154.63101
 21
-138.252619
 31
0.0
  0
LINE
  5
6F4
100
AcDbEntity
  8
0
  6
CONTINUOUS
 62
     0
100
AcDbLine
 10
153.796797
 20
-138.945411
 30
0.0
 11
154.540978
 21
-138.20123
 31
0.0
  0
LINE
  5
6F5
100
AcDbEntity
  8
0
  6
CONTINUOUS
 62
     0
100
AcDbLine
 10
153.86849
 20
-138.732296
 30
0.0
 11
154.54098
 21
-138.059806
 31
0.0
  0
LINE
  5
6F6
100
AcDbEntity
  8
0
  6
CONTINUOUS
 62
     0
100
AcDbLine
 10
153.743797
 20
-138.715568
 30
0.0
 11
154.540983
 21
-137.918382
 31
0.0
  0
LINE
  5
6F7
100
AcDbEntity
  8
0
  6
CONTINUOUS
 62
     0
100
AcDbLine
 10
153.602376
 20
-138.715568
 30
0.0
 11
154.540985
 21
-137.776958
 31
0.0
  0
LINE
  5
6F8
100
AcDbEntity
  8
0
  6
CONTINUOUS
 62
     0
100
AcDbLine
 10
153.487361
 20
-138.689161
 30
0.0
 11
154.535877
 21
-137.640645
 31
0.0
  0
LINE
  5
6F9
100
AcDbEntity
  8
0
  6
CONTINUOUS
 62
     0
100
AcDbLine
 10
153.417672
 20
-138.617428
 30
0.0
 11
153.782482
 21
-138.252619
 31
0.0
  0
LINE
  5
6FA
100
AcDbEntity
  8
0
  6
CONTINUOUS
 62
     0
100
AcDbLine
 10
153.899212
 20
-138.135888
 30
0.0
 11
154.483427
 21
-137.551674
 31
0.0
  0
LINE
  5
6FB
100
AcDbEntity
  8
0
  6
CONTINUOUS
 62
     0
100
AcDbLine
 10
153.39399
 20
-138.499689
 30
0.0
 11
153.64106
 21
-138.252619
 31
0.0
  0
LINE
  5
6FC
100
AcDbEntity
  8
0
  6
CONTINUOUS
 62
     0
100
AcDbLine
 10
153.899214
 20
-137.994465
 30
0.0
 11
154.395571
 21
-137.498108
 31
0.0
  0
LINE
  5
6FD
100
AcDbEntity
  8
0
  6
CONTINUOUS
 62
     0
100
AcDbLine
 10
153.899216
 20
-137.853042
 30
0.0
 11
154.28394
 21
-137.468318
 31
0.0
  0
LINE
  5
6FE
100
AcDbEntity
  8
0
  6
CONTINUOUS
 62
     0
100
AcDbLine
 10
153.899218
 20
-137.711619
 30
0.0
 11
154.13914
 21
-137.471696
 31
0.0
  0
ENDBLK
  5
6FF
100
AcDbEntity
  8
0
  6
ByBlock
 62
     0
100
AcDbBlockEnd
  0
BLOCK
  5
702
100
AcDbEntity
  8
0
  6
ByBlock
 62
     0
100
AcDbBlockBegin
  2
*X13
 70
     1
 10
0.0
 20
0.0
 30
0.0
  3
*X13
  1

  0
LINE
  5
703
100
AcDbEntity
  8
0
  6
CONTINUOUS
 62
     0
100
AcDbLine
 10
168.913616
 20
-141.789104
 30
0.0
 11
169.033298
 21
-141.669422
 31
0.0
  0
LINE
  5
704
100
AcDbEntity
  8
0
  6
CONTINUOUS
 62
     0
100
AcDbLine
 10
168.754337
 20
-141.806961
 30
0.0
 11
169.051155
 21
-141.510143
 31
0.0
  0
LINE
  5
705
100
AcDbEntity
  8
0
  6
CONTINUOUS
 62
     0
100
AcDbLine
 10
168.616987
 20
-141.80289
 30
0.0
 11
169.051155
 21
-141.368722
 31
0.0
  0
LINE
  5
706
100
AcDbEntity
  8
0
  6
CONTINUOUS
 62
     0
100
AcDbLine
 10
168.516987
 20
-141.761469
 30
0.0
 11
169.051156
 21
-141.2273
 31
0.0
  0
LINE
  5
707
100
AcDbEntity
  8
0
  6
CONTINUOUS
 62
     0
100
AcDbLine
 10
168.446503
 20
-141.690531
 30
0.0
 11
169.051156
 21
-141.085878
 31
0.0
  0
LINE
  5
708
100
AcDbEntity
  8
0
  6
CONTINUOUS
 62
     0
100
AcDbLine
 10
168.405082
 20
-141.590531
 30
0.0
 11
169.051157
 21
-140.944456
 31
0.0
  0
LINE
  5
709
100
AcDbEntity
  8
0
  6
CONTINUOUS
 62
     0
100
AcDbLine
 10
168.401331
 20
-141.45286
 30
0.0
 11
169.051157
 21
-140.803034
 31
0.0
  0
LINE
  5
70A
100
AcDbEntity
  8
0
  6
CONTINUOUS
 62
     0
100
AcDbLine
 10
168.401331
 20
-141.31144
 30
0.0
 11
169.051157
 21
-140.661613
 31
0.0
  0
LINE
  5
70B
100
AcDbEntity
  8
0
  6
CONTINUOUS
 62
     0
100
AcDbLine
 10
168.40133
 20
-141.170019
 30
0.0
 11
169.051158
 21
-140.520191
 31
0.0
  0
LINE
  5
70C
100
AcDbEntity
  8
0
  6
CONTINUOUS
 62
     0
100
AcDbLine
 10
169.450565
 20
-140.120783
 30
0.0
 11
169.618612
 21
-139.952737
 31
0.0
  0
LINE
  5
70D
100
AcDbEntity
  8
0
  6
CONTINUOUS
 62
     0
100
AcDbLine
 10
168.401329
 20
-141.028598
 30
0.0
 11
169.051158
 21
-140.378769
 31
0.0
  0
LINE
  5
70E
100
AcDbEntity
  8
0
  6
CONTINUOUS
 62
     0
100
AcDbLine
 10
169.297449
 20
-140.132479
 30
0.0
 11
169.620168
 21
-139.809759
 31
0.0
  0
LINE
  5
70F
100
AcDbEntity
  8
0
  6
CONTINUOUS
 62
     0
100
AcDbLine
 10
168.401329
 20
-140.887178
 30
0.0
 11
169.051159
 21
-140.237347
 31
0.0
  0
LINE
  5
710
100
AcDbEntity
  8
0
  6
CONTINUOUS
 62
     0
100
AcDbLine
 10
169.203213
 20
-140.085293
 30
0.0
 11
169.562938
 21
-139.725569
 31
0.0
  0
LINE
  5
711
100
AcDbEntity
  8
0
  6
CONTINUOUS
 62
     0
100
AcDbLine
 10
168.401328
 20
-140.745757
 30
0.0
 11
169.051159
 21
-140.095926
 31
0.0
  0
LINE
  5
712
100
AcDbEntity
  8
0
  6
CONTINUOUS
 62
     0
100
AcDbLine
 10
169.131095
 20
-140.01599
 30
0.0
 11
169.484922
 21
-139.662163
 31
0.0
  0
LINE
  5
713
100
AcDbEntity
  8
0
  6
CONTINUOUS
 62
     0
100
AcDbLine
 10
168.401327
 20
-140.604336
 30
0.0
 11
169.05116
 21
-139.954504
 31
0.0
  0
LINE
  5
714
100
AcDbEntity
  8
0
  6
CONTINUOUS
 62
     0
100
AcDbLine
 10
169.059718
 20
-139.945945
 30
0.0
 11
169.406774
 21
-139.598889
 31
0.0
  0
LINE
  5
715
100
AcDbEntity
  8
0
  6
CONTINUOUS
 62
     0
100
AcDbLine
 10
168.401327
 20
-140.462916
 30
0.0
 11
169.328627
 21
-139.535615
 31
0.0
  0
LINE
  5
716
100
AcDbEntity
  8
0
  6
CONTINUOUS
 62
     0
100
AcDbLine
 10
168.401326
 20
-140.321495
 30
0.0
 11
169.25048
 21
-139.47234
 31
0.0
  0
LINE
  5
717
100
AcDbEntity
  8
0
  6
CONTINUOUS
 62
     0
100
AcDbLine
 10
168.401325
 20
-140.180074
 30
0.0
 11
169.172333
 21
-139.409066
 31
0.0
  0
LINE
  5
718
100
AcDbEntity
  8
0
  6
CONTINUOUS
 62
     0
100
AcDbLine
 10
168.401324
 20
-140.038653
 30
0.0
 11
169.161594
 21
-139.278384
 31
0.0
  0
LINE
  5
719
100
AcDbEntity
  8
0
  6
CONTINUOUS
 62
     0
100
AcDbLine
 10
168.0394
 20
-140.259157
 30
0.0
 11
169.442997
 21
-138.85556
 31
0.0
  0
LINE
  5
71A
100
AcDbEntity
  8
0
  6
CONTINUOUS
 62
     0
100
AcDbLine
 10
167.884903
 20
-140.272232
 30
0.0
 11
169.582145
 21
-138.574991
 31
0.0
  0
LINE
  5
71B
100
AcDbEntity
  8
0
  6
CONTINUOUS
 62
     0
100
AcDbLine
 10
167.784458
 20
-140.231256
 30
0.0
 11
169.592095
 21
-138.423619
 31
0.0
  0
LINE
  5
71C
100
AcDbEntity
  8
0
  6
CONTINUOUS
 62
     0
100
AcDbLine
 10
167.711878
 20
-140.162415
 30
0.0
 11
169.565891
 21
-138.308402
 31
0.0
  0
LINE
  5
71D
100
AcDbEntity
  8
0
  6
CONTINUOUS
 62
     0
100
AcDbLine
 10
167.666254
 20
-140.066617
 30
0.0
 11
169.507716
 21
-138.225155
 31
0.0
  0
LINE
  5
71E
100
AcDbEntity
  8
0
  6
CONTINUOUS
 62
     0
100
AcDbLine
 10
167.665869
 20
-139.925581
 30
0.0
 11
167.98298
 21
-139.60847
 31
0.0
  0
LINE
  5
71F
100
AcDbEntity
  8
0
  6
CONTINUOUS
 62
     0
100
AcDbLine
 10
168.892991
 20
-138.698459
 30
0.0
 11
169.424029
 21
-138.16742
 31
0.0
  0
LINE
  5
720
100
AcDbEntity
  8
0
  6
CONTINUOUS
 62
     0
100
AcDbLine
 10
168.827385
 20
-138.622643
 30
0.0
 11
169.308099
 21
-138.141929
 31
0.0
  0
LINE
  5
721
100
AcDbEntity
  8
0
  6
CONTINUOUS
 62
     0
100
AcDbLine
 10
168.685964
 20
-138.622643
 30
0.0
 11
169.166685
 21
-138.141922
 31
0.0
  0
LINE
  5
722
100
AcDbEntity
  8
0
  6
CONTINUOUS
 62
     0
100
AcDbLine
 10
168.544542
 20
-138.622643
 30
0.0
 11
169.05116
 21
-138.116026
 31
0.0
  0
LINE
  5
723
100
AcDbEntity
  8
0
  6
CONTINUOUS
 62
     0
100
AcDbLine
 10
168.403121
 20
-138.622643
 30
0.0
 11
169.05116
 21
-137.974605
 31
0.0
  0
LINE
  5
724
100
AcDbEntity
  8
0
  6
CONTINUOUS
 62
     0
100
AcDbLine
 10
168.2617
 20
-138.622643
 30
0.0
 11
169.05116
 21
-137.833183
 31
0.0
  0
LINE
  5
725
100
AcDbEntity
  8
0
  6
CONTINUOUS
 62
     0
100
AcDbLine
 10
168.120278
 20
-138.622643
 30
0.0
 11
169.051158
 21
-137.691763
 31
0.0
  0
LINE
  5
726
100
AcDbEntity
  8
0
  6
CONTINUOUS
 62
     0
100
AcDbLine
 10
167.978857
 20
-138.622643
 30
0.0
 11
169.021668
 21
-137.579833
 31
0.0
  0
LINE
  5
727
100
AcDbEntity
  8
0
  6
CONTINUOUS
 62
     0
100
AcDbLine
 10
167.855119
 20
-138.60496
 30
0.0
 11
168.318156
 21
-138.141923
 31
0.0
  0
LINE
  5
728
100
AcDbEntity
  8
0
  6
CONTINUOUS
 62
     0
100
AcDbLine
 10
168.401324
 20
-138.058755
 30
0.0
 11
168.954775
 21
-137.505304
 31
0.0
  0
LINE
  5
729
100
AcDbEntity
  8
0
  6
CONTINUOUS
 62
     0
100
AcDbLine
 10
167.772389
 20
-138.546269
 30
0.0
 11
168.176734
 21
-138.141923
 31
0.0
  0
LINE
  5
72A
100
AcDbEntity
  8
0
  6
CONTINUOUS
 62
     0
100
AcDbLine
 10
168.401324
 20
-137.917333
 30
0.0
 11
168.853816
 21
-137.464842
 31
0.0
  0
LINE
  5
72B
100
AcDbEntity
  8
0
  6
CONTINUOUS
 62
     0
100
AcDbLine
 10
167.722187
 20
-138.455049
 30
0.0
 11
168.035313
 21
-138.141923
 31
0.0
  0
LINE
  5
72C
100
AcDbEntity
  8
0
  6
CONTINUOUS
 62
     0
100
AcDbLine
 10
168.401324
 20
-137.775912
 30
0.0
 11
168.714724
 21
-137.462512
 31
0.0
  0
LINE
  5
72D
100
AcDbEntity
  8
0
  6
CONTINUOUS
 62
     0
100
AcDbLine
 10
167.72068
 20
-138.315135
 30
0.0
 11
167.886771
 21
-138.149044
 31
0.0
  0
LINE
  5
72E
100
AcDbEntity
  8
0
  6
CONTINUOUS
 62
     0
100
AcDbLine
 10
168.411743
 20
-137.624072
 30
0.0
 11
168.562884
 21
-137.47293
 31
0.0
  0
ENDBLK
  5
72F
100
AcDbEntity
  8
0
  6
ByBlock
 62
     0
100
AcDbBlockEnd
  0
BLOCK
  5
732
100
AcDbEntity
  8
0
  6
ByBlock
 62
     0
100
AcDbBlockBegin
  2
*X14
 70
     1
 10
0.0
 20
0.0
 30
0.0
  3
*X14
  1

  0
LINE
  5
733
100
AcDbEntity
  8
0
  6
CONTINUOUS
 62
     0
100
AcDbLine
 10
171.843059
 20
-141.688088
 30
0.0
 11
171.988088
 21
-141.543059
 31
0.0
  0
LINE
  5
734
100
AcDbEntity
  8
0
  6
CONTINUOUS
 62
     0
100
AcDbLine
 10
171.689725
 20
-141.7
 30
0.0
 11
171.999768
 21
-141.389957
 31
0.0
  0
LINE
  5
735
100
AcDbEntity
  8
0
  6
CONTINUOUS
 62
     0
100
AcDbLine
 10
171.548304
 20
-141.7
 30
0.0
 11
171.9669
 21
-141.281404
 31
0.0
  0
LINE
  5
736
100
AcDbEntity
  8
0
  6
CONTINUOUS
 62
     0
100
AcDbLine
 10
171.406883
 20
-141.7
 30
0.0
 11
171.897819
 21
-141.209063
 31
0.0
  0
LINE
  5
737
100
AcDbEntity
  8
0
  6
CONTINUOUS
 62
     0
100
AcDbLine
 10
171.265461
 20
-141.7
 30
0.0
 11
171.793937
 21
-141.171525
 31
0.0
  0
LINE
  5
738
100
AcDbEntity
  8
0
  6
CONTINUOUS
 62
     0
100
AcDbLine
 10
171.12404
 20
-141.7
 30
0.0
 11
171.653764
 21
-141.170276
 31
0.0
  0
LINE
  5
739
100
AcDbEntity
  8
0
  6
CONTINUOUS
 62
     0
100
AcDbLine
 10
170.982619
 20
-141.7
 30
0.0
 11
171.512343
 21
-141.170276
 31
0.0
  0
LINE
  5
73A
100
AcDbEntity
  8
0
  6
CONTINUOUS
 62
     0
100
AcDbLine
 10
170.841197
 20
-141.7
 30
0.0
 11
171.370922
 21
-141.170276
 31
0.0
  0
LINE
  5
73B
100
AcDbEntity
  8
0
  6
CONTINUOUS
 62
     0
100
AcDbLine
 10
170.699776
 20
-141.7
 30
0.0
 11
171.2295
 21
-141.170276
 31
0.0
  0
LINE
  5
73C
100
AcDbEntity
  8
0
  6
CONTINUOUS
 62
     0
100
AcDbLine
 10
170.558355
 20
-141.7
 30
0.0
 11
171.088079
 21
-141.170276
 31
0.0
  0
LINE
  5
73D
100
AcDbEntity
  8
0
  6
CONTINUOUS
 62
     0
100
AcDbLine
 10
170.416933
 20
-141.7
 30
0.0
 11
171.072659
 21
-141.044274
 31
0.0
  0
LINE
  5
73E
100
AcDbEntity
  8
0
  6
CONTINUOUS
 62
     0
100
AcDbLine
 10
170.275512
 20
-141.7
 30
0.0
 11
171.072659
 21
-140.902853
 31
0.0
  0
LINE
  5
73F
100
AcDbEntity
  8
0
  6
CONTINUOUS
 62
     0
100
AcDbLine
 10
170.134091
 20
-141.7
 30
0.0
 11
171.072659
 21
-140.761431
 31
0.0
  0
LINE
  5
740
100
AcDbEntity
  8
0
  6
CONTINUOUS
 62
     0
100
AcDbLine
 10
169.992669
 20
-141.7
 30
0.0
 11
171.072659
 21
-140.62001
 31
0.0
  0
LINE
  5
741
100
AcDbEntity
  8
0
  6
CONTINUOUS
 62
     0
100
AcDbLine
 10
169.851248
 20
-141.7
 30
0.0
 11
171.072659
 21
-140.478588
 31
0.0
  0
LINE
  5
742
100
AcDbEntity
  8
0
  6
CONTINUOUS
 62
     0
100
AcDbLine
 10
169.709826
 20
-141.7
 30
0.0
 11
170.239551
 21
-141.170276
 31
0.0
  0
LINE
  5
743
100
AcDbEntity
  8
0
  6
CONTINUOUS
 62
     0
100
AcDbLine
 10
170.374717
 20
-141.03511
 30
0.0
 11
171.072659
 21
-140.337167
 31
0.0
  0
LINE
  5
744
100
AcDbEntity
  8
0
  6
CONTINUOUS
 62
     0
100
AcDbLine
 10
169.568405
 20
-141.7
 30
0.0
 11
170.098129
 21
-141.170276
 31
0.0
  0
LINE
  5
745
100
AcDbEntity
  8
0
  6
CONTINUOUS
 62
     0
100
AcDbLine
 10
170.374717
 20
-140.893688
 30
0.0
 11
171.072659
 21
-140.195746
 31
0.0
  0
LINE
  5
746
100
AcDbEntity
  8
0
  6
CONTINUOUS
 62
     0
100
AcDbLine
 10
169.439864
 20
-141.68712
 30
0.0
 11
169.956708
 21
-141.170276
 31
0.0
  0
LINE
  5
747
100
AcDbEntity
  8
0
  6
CONTINUOUS
 62
     0
100
AcDbLine
 10
170.374717
 20
-140.752267
 30
0.0
 11
171.072659
 21
-140.054324
 31
0.0
  0
LINE
  5
748
100
AcDbEntity
  8
0
  6
CONTINUOUS
 62
     0
100
AcDbLine
 10
169.353022
 20
-141.63254
 30
0.0
 11
169.815287
 21
-141.170276
 31
0.0
  0
LINE
  5
749
100
AcDbEntity
  8
0
  6
CONTINUOUS
 62
     0
100
AcDbLine
 10
170.374717
 20
-140.610846
 30
0.0
 11
171.072659
 21
-139.912903
 31
0.0
  0
LINE
  5
74A
100
AcDbEntity
  8
0
  6
CONTINUOUS
 62
     0
100
AcDbLine
 10
169.298534
 20
-141.545607
 30
0.0
 11
169.673865
 21
-141.170276
 31
0.0
  0
LINE
  5
74B
100
AcDbEntity
  8
0
  6
CONTINUOUS
 62
     0
100
AcDbLine
 10
170.374717
 20
-140.469424
 30
0.0
 11
171.072659
 21
-139.771482
 31
0.0
  0
LINE
  5
74C
100
AcDbEntity
  8
0
  6
CONTINUOUS
 62
     0
100
AcDbLine
 10
171.690294
 20
-139.153847
 30
0.0
 11
171.892482
 21
-138.951659
 31
0.0
  0
LINE
  5
74D
100
AcDbEntity
  8
0
  6
CONTINUOUS
 62
     0
100
AcDbLine
 10
169.285752
 20
-141.416968
 30
0.0
 11
169.532444
 21
-141.170276
 31
0.0
  0
LINE
  5
74E
100
AcDbEntity
  8
0
  6
CONTINUOUS
 62
     0
100
AcDbLine
 10
170.374717
 20
-140.328003
 30
0.0
 11
171.072659
 21
-139.63006
 31
0.0
  0
LINE
  5
74F
100
AcDbEntity
  8
0
  6
CONTINUOUS
 62
     0
100
AcDbLine
 10
171.547363
 20
-139.155356
 30
0.0
 11
171.889167
 21
-138.813553
 31
0.0
  0
LINE
  5
750
100
AcDbEntity
  8
0
  6
CONTINUOUS
 62
     0
100
AcDbLine
 10
170.374717
 20
-140.186582
 30
0.0
 11
171.072659
 21
-139.488639
 31
0.0
  0
LINE
  5
751
100
AcDbEntity
  8
0
  6
CONTINUOUS
 62
     0
100
AcDbLine
 10
171.405942
 20
-139.155356
 30
0.0
 11
171.844023
 21
-138.717275
 31
0.0
  0
LINE
  5
752
100
AcDbEntity
  8
0
  6
CONTINUOUS
 62
     0
100
AcDbLine
 10
170.374717
 20
-140.04516
 30
0.0
 11
171.072659
 21
-139.347218
 31
0.0
  0
LINE
  5
753
100
AcDbEntity
  8
0
  6
CONTINUOUS
 62
     0
100
AcDbLine
 10
171.264521
 20
-139.155356
 30
0.0
 11
171.765736
 21
-138.654141
 31
0.0
  0
LINE
  5
754
100
AcDbEntity
  8
0
  6
CONTINUOUS
 62
     0
100
AcDbLine
 10
170.374717
 20
-139.903739
 30
0.0
 11
171.072659
 21
-139.205796
 31
0.0
  0
LINE
  5
755
100
AcDbEntity
  8
0
  6
CONTINUOUS
 62
     0
100
AcDbLine
 10
171.123099
 20
-139.155356
 30
0.0
 11
171.648043
 21
-138.630413
 31
0.0
  0
LINE
  5
756
100
AcDbEntity
  8
0
  6
CONTINUOUS
 62
     0
100
AcDbLine
 10
170.374717
 20
-139.762318
 30
0.0
 11
171.506622
 21
-138.630413
 31
0.0
  0
LINE
  5
757
100
AcDbEntity
  8
0
  6
CONTINUOUS
 62
     0
100
AcDbLine
 10
170.374717
 20
-139.620896
 30
0.0
 11
171.3652
 21
-138.630413
 31
0.0
  0
LINE
  5
758
100
AcDbEntity
  8
0
  6
CONTINUOUS
 62
     0
100
AcDbLine
 10
170.374717
 20
-139.479475
 30
0.0
 11
171.223779
 21
-138.630413
 31
0.0
  0
LINE
  5
759
100
AcDbEntity
  8
0
  6
CONTINUOUS
 62
     0
100
AcDbLine
 10
170.374717
 20
-139.338054
 30
0.0
 11
171.082357
 21
-138.630413
 31
0.0
  0
LINE
  5
75A
100
AcDbEntity
  8
0
  6
CONTINUOUS
 62
     0
100
AcDbLine
 10
170.374717
 20
-139.196632
 30
0.0
 11
171.072659
 21
-138.498689
 31
0.0
  0
LINE
  5
75B
100
AcDbEntity
  8
0
  6
CONTINUOUS
 62
     0
100
AcDbLine
 10
170.274571
 20
-139.155356
 30
0.0
 11
171.072659
 21
-138.357268
 31
0.0
  0
LINE
  5
75C
100
AcDbEntity
  8
0
  6
CONTINUOUS
 62
     0
100
AcDbLine
 10
170.13315
 20
-139.155356
 30
0.0
 11
171.072659
 21
-138.215847
 31
0.0
  0
LINE
  5
75D
100
AcDbEntity
  8
0
  6
CONTINUOUS
 62
     0
100
AcDbLine
 10
169.991729
 20
-139.155356
 30
0.0
 11
171.072659
 21
-138.074425
 31
0.0
  0
LINE
  5
75E
100
AcDbEntity
  8
0
  6
CONTINUOUS
 62
     0
100
AcDbLine
 10
169.850307
 20
-139.155356
 30
0.0
 11
171.072659
 21
-137.933004
 31
0.0
  0
LINE
  5
75F
100
AcDbEntity
  8
0
  6
CONTINUOUS
 62
     0
100
AcDbLine
 10
169.720695
 20
-139.143547
 30
0.0
 11
170.233828
 21
-138.630414
 31
0.0
  0
LINE
  5
760
100
AcDbEntity
  8
0
  6
CONTINUOUS
 62
     0
100
AcDbLine
 10
170.374717
 20
-138.489525
 30
0.0
 11
171.072659
 21
-137.791583
 31
0.0
  0
LINE
  5
761
100
AcDbEntity
  8
0
  6
CONTINUOUS
 62
     0
100
AcDbLine
 10
169.632833
 20
-139.089988
 30
0.0
 11
170.092406
 21
-138.630415
 31
0.0
  0
LINE
  5
762
100
AcDbEntity
  8
0
  6
CONTINUOUS
 62
     0
100
AcDbLine
 10
170.374717
 20
-138.348104
 30
0.0
 11
171.069326
 21
-137.653495
 31
0.0
  0
LINE
  5
763
100
AcDbEntity
  8
0
  6
CONTINUOUS
 62
     0
100
AcDbLine
 10
169.577333
 20
-139.004066
 30
0.0
 11
169.950983
 21
-138.630416
 31
0.0
  0
LINE
  5
764
100
AcDbEntity
  8
0
  6
CONTINUOUS
 62
     0
100
AcDbLine
 10
170.374717
 20
-138.206683
 30
0.0
 11
171.026757
 21
-137.554642
 31
0.0
  0
LINE
  5
765
100
AcDbEntity
  8
0
  6
CONTINUOUS
 62
     0
100
AcDbLine
 10
169.563446
 20
-138.876532
 30
0.0
 11
169.809561
 21
-138.630417
 31
0.0
  0
LINE
  5
766
100
AcDbEntity
  8
0
  6
CONTINUOUS
 62
     0
100
AcDbLine
 10
170.374717
 20
-138.065261
 30
0.0
 11
170.950577
 21
-137.489401
 31
0.0
  0
LINE
  5
767
100
AcDbEntity
  8
0
  6
CONTINUOUS
 62
     0
100
AcDbLine
 10
170.374717
 20
-137.92384
 30
0.0
 11
170.836045
 21
-137.462512
 31
0.0
  0
LINE
  5
768
100
AcDbEntity
  8
0
  6
CONTINUOUS
 62
     0
100
AcDbLine
 10
170.374717
 20
-137.782419
 30
0.0
 11
170.694623
 21
-137.462512
 31
0.0
  0
LINE
  5
769
100
AcDbEntity
  8
0
  6
CONTINUOUS
 62
     0
100
AcDbLine
 10
170.382489
 20
-137.633225
 30
0.0
 11
170.54543
 21
-137.470284
 31
0.0
  0
ENDBLK
  5
76A
100
AcDbEntity
  8
0
  6
ByBlock
 62
     0
100
AcDbBlockEnd
  0
ENDSEC
  0
SECTION
  2
ENTITIES
  0
LINE
  5
28
100
AcDbEntity
  8
CLASS1
  6
CONTINUOUS
 62
     7
100
AcDbLine
 10
-217.0
 20
-148.5
 30
0.0
 11
-216.899994
 21
-148.5
 31
0.0
  0
LINE
  5
29
100
AcDbEntity
  8
CLASS1
  6
CONTINUOUS
 62
     7
100
AcDbLine
 10
-155.0
 20
-117.0
 30
0.0
 11
-119.35
 21
-117.0
 31
0.0
  0
LINE
  5
2A
100
AcDbEntity
  8
CLASS1
  6
CONTINUOUS
 62
     7
100
AcDbLine
 10
-155.0
 20
-87.0
 30
0.0
 11
-119.35
 21
-87.0
 31
0.0
  0
LINE
  5
2B
100
AcDbEntity
  8
CLASS1
  6
CONTINUOUS
 62
     7
100
AcDbLine
 10
-155.0
 20
-116.400001
 30
0.0
 11
-119.35
 21
-116.400001
 31
0.0
  0
LINE
  5
2C
100
AcDbEntity
  8
CLASS1
  6
CONTINUOUS
 62
     7
100
AcDbLine
 10
-123.225
 20
-113.0
 30
0.0
 11
-123.225
 21
-116.200001
 31
0.0
  0
LINE
  5
2D
100
AcDbEntity
  8
CLASS1
  6
CONTINUOUS
 62
     7
100
AcDbLine
 10
-126.775
 20
-113.0
 30
0.0
 11
-126.775
 21
-116.200001
 31
0.0
  0
LINE
  5
2E
100
AcDbEntity
  8
CLASS1
  6
CONTINUOUS
 62
     7
100
AcDbLine
 10
-155.0
 20
-112.0
 30
0.0
 11
-122.05
 21
-112.0
 31
0.0
  0
LINE
  5
2F
100
AcDbEntity
  8
CLASS1
  6
CONTINUOUS
 62
     7
100
AcDbLine
 10
-118.75
 20
-87.600006
 30
0.0
 11
-118.75
 21
-92.283157
 31
0.0
  0
LINE
  5
30
100
AcDbEntity
  8
CLASS1
  6
CONTINUOUS
 62
     7
100
AcDbLine
 10
-119.35
 20
-87.600006
 30
0.0
 11
-119.35
 21
-91.563553
 31
0.0
  0
LINE
  5
31
100
AcDbEntity
  8
CLASS1
  6
CONTINUOUS
 62
     7
100
AcDbLine
 10
-155.0
 20
-87.600006
 30
0.0
 11
-119.35
 21
-87.600006
 31
0.0
  0
LINE
  5
32
100
AcDbEntity
  8
CLASS1
  6
CONTINUOUS
 62
     7
100
AcDbLine
 10
-119.35
 20
-97.0
 30
0.0
 11
-118.75
 21
-97.0
 31
0.0
  0
LINE
  5
33
100
AcDbEntity
  8
CLASS1
  6
CONTINUOUS
 62
     7
100
AcDbLine
 10
-119.950001
 20
-96.450012
 30
0.0
 11
-119.950001
 21
-99.5
 31
0.0
  0
LINE
  5
34
100
AcDbEntity
  8
CLASS1
  6
CONTINUOUS
 62
     7
100
AcDbLine
 10
-119.950001
 20
-99.5
 30
0.0
 11
-119.35
 21
-99.5
 31
0.0
  0
LINE
  5
35
100
AcDbEntity
  8
CLASS1
  6
CONTINUOUS
 62
     7
100
AcDbLine
 10
-119.35
 20
-97.050003
 30
0.0
 11
-119.35
 21
-104.798752
 31
0.0
  0
LINE
  5
36
100
AcDbEntity
  8
CLASS1
  6
CONTINUOUS
 62
     7
100
AcDbLine
 10
-118.75
 20
-97.0
 30
0.0
 11
-118.75
 21
-105.518356
 31
0.0
  0
LINE
  5
37
100
AcDbEntity
  8
CLASS1
  6
CONTINUOUS
 62
     7
100
AcDbLine
 10
-127.5
 20
-111.5
 30
0.0
 11
-122.5
 21
-111.5
 31
0.0
  0
LINE
  5
38
100
AcDbEntity
  8
CLASS1
  6
CONTINUOUS
 62
     7
100
AcDbLine
 10
-122.5
 20
-111.5
 30
0.0
 11
-122.5
 21
-112.0
 31
0.0
  0
LINE
  5
39
100
AcDbEntity
  8
CLASS1
  6
CONTINUOUS
 62
     7
100
AcDbLine
 10
-127.5
 20
-111.5
 30
0.0
 11
-127.5
 21
-112.0
 31
0.0
  0
LINE
  5
3A
100
AcDbEntity
  8
CLASS1
  6
CONTINUOUS
 62
     7
100
AcDbLine
 10
-127.375
 20
-110.850006
 30
0.0
 11
-122.625
 21
-110.850006
 31
0.0
  0
LINE
  5
3B
100
AcDbEntity
  8
CLASS1
  6
CONTINUOUS
 62
     7
100
AcDbLine
 10
-122.700001
 20
-110.850006
 30
0.0
 11
-122.700001
 21
-111.5
 31
0.0
  0
LINE
  5
3C
100
AcDbEntity
  8
CLASS1
  6
CONTINUOUS
 62
     7
100
AcDbLine
 10
-127.299999
 20
-110.850006
 30
0.0
 11
-127.299999
 21
-111.5
 31
0.0
  0
LINE
  5
3D
100
AcDbEntity
  8
CLASS1
  6
CONTINUOUS
 62
     7
100
AcDbLine
 10
-125.387639
 20
-111.500007
 30
0.0
 11
-125.012364
 21
-110.850012
 31
0.0
  0
LINE
  5
3E
100
AcDbEntity
  8
CLASS1
  6
CONTINUOUS
 62
     7
100
AcDbLine
 10
-124.987641
 20
-111.500009
 30
0.0
 11
-124.612366
 21
-110.850014
 31
0.0
  0
LINE
  5
3F
100
AcDbEntity
  8
CLASS1
  6
CONTINUOUS
 62
     7
100
AcDbLine
 10
-122.625
 20
-110.333679
 30
0.0
 11
-122.625
 21
-110.850006
 31
0.0
  0
LINE
  5
40
100
AcDbEntity
  8
CLASS1
  6
CONTINUOUS
 62
     7
100
AcDbLine
 10
-127.375
 20
-110.333679
 30
0.0
 11
-127.375
 21
-110.850006
 31
0.0
  0
LINE
  5
41
100
AcDbEntity
  8
CLASS1
  6
CONTINUOUS
 62
     7
100
AcDbLine
 10
-125.3
 20
-109.600021
 30
0.0
 11
-124.700001
 21
-109.600021
 31
0.0
  0
LINE
  5
42
100
AcDbEntity
  8
CLASS1
  6
CONTINUOUS
 62
     7
100
AcDbLine
 10
-124.700001
 20
-109.011292
 30
0.0
 11
-124.700001
 21
-109.600021
 31
0.0
  0
LINE
  5
43
100
AcDbEntity
  8
CLASS1
  6
CONTINUOUS
 62
     7
100
AcDbLine
 10
-125.3
 20
-109.011292
 30
0.0
 11
-125.3
 21
-109.600021
 31
0.0
  0
LINE
  5
44
100
AcDbEntity
  8
CLASS1
  6
CONTINUOUS
 62
     7
100
AcDbLine
 10
-119.35
 20
-105.798752
 30
0.0
 11
-119.35
 21
-116.400001
 31
0.0
  0
LINE
  5
45
100
AcDbEntity
  8
CLASS1
  6
CONTINUOUS
 62
     7
100
AcDbLine
 10
-118.75
 20
-106.518356
 30
0.0
 11
-118.75
 21
-116.400001
 31
0.0
  0
LINE
  5
46
100
AcDbEntity
  8
CLASS1
  6
CONTINUOUS
 62
     7
100
AcDbLine
 10
-126.799999
 20
-117.200001
 30
0.0
 11
-123.200001
 21
-117.200001
 31
0.0
  0
LINE
  5
47
100
AcDbEntity
  8
CLASS1
  6
CONTINUOUS
 62
     7
100
AcDbLine
 10
-126.799999
 20
-116.200001
 30
0.0
 11
-123.200001
 21
-116.200001
 31
0.0
  0
LINE
  5
48
100
AcDbEntity
  8
CLASS1
  6
CONTINUOUS
 62
     7
100
AcDbLine
 10
-155.0
 20
-112.8
 30
0.0
 11
-122.05
 21
-112.8
 31
0.0
  0
LINE
  5
49
100
AcDbEntity
  8
CLASS1
  6
CONTINUOUS
 62
     7
100
AcDbLine
 10
-121.25
 20
-112.8
 30
0.0
 11
-121.25
 21
-116.400001
 31
0.0
  0
LINE
  5
4A
100
AcDbEntity
  8
CLASS1
  6
CONTINUOUS
 62
     7
100
AcDbLine
 10
-122.05
 20
-112.8
 30
0.0
 11
-122.05
 21
-116.400001
 31
0.0
  0
LINE
  5
4B
100
AcDbEntity
  8
CLASS1
  6
CONTINUOUS
 62
     7
100
AcDbLine
 10
-126.775
 20
-113.0
 30
0.0
 11
-123.225
 21
-113.0
 31
0.0
  0
LINE
  5
4C
100
AcDbEntity
  8
CLASS1
  6
CONTINUOUS
 62
     7
100
AcDbLine
 10
-126.25
 20
-113.0
 30
0.0
 11
-126.25
 21
-112.8
 31
0.0
  0
LINE
  5
4D
100
AcDbEntity
  8
CLASS1
  6
CONTINUOUS
 62
     7
100
AcDbLine
 10
-123.75
 20
-113.0
 30
0.0
 11
-123.75
 21
-112.8
 31
0.0
  0
LINE
  5
4E
100
AcDbEntity
  8
CLASS1
  6
CONTINUOUS
 62
     7
100
AcDbLine
 10
-123.950001
 20
-113.0
 30
0.0
 11
-123.950001
 21
-112.8
 31
0.0
  0
LINE
  5
4F
100
AcDbEntity
  8
CLASS1
  6
CONTINUOUS
 62
     7
100
AcDbLine
 10
-126.05
 20
-113.0
 30
0.0
 11
-126.05
 21
-112.8
 31
0.0
  0
LINE
  5
50
100
AcDbEntity
  8
CLASS1
  6
CONTINUOUS
 62
     7
100
AcDbLine
 10
-117.75
 20
-97.0
 30
0.0
 11
-111.304459
 21
-97.0
 31
0.0
  0
LINE
  5
51
100
AcDbEntity
  8
CLASS1
  6
CONTINUOUS
 62
     7
100
AcDbLine
 10
-117.75
 20
-96.75
 30
0.0
 11
-111.304459
 21
-96.75
 31
0.0
  0
LINE
  5
52
100
AcDbEntity
  8
CLASS1
  6
CONTINUOUS
 62
     7
100
AcDbLine
 10
-120.25
 20
-112.0
 30
0.0
 11
-111.304459
 21
-112.0
 31
0.0
  0
LINE
  5
53
100
AcDbEntity
  8
CLASS1
  6
CONTINUOUS
 62
     7
100
AcDbLine
 10
-117.75
 20
-117.0
 30
0.0
 11
-111.304459
 21
-117.0
 31
0.0
  0
LINE
  5
54
100
AcDbEntity
  8
CLASS1
  6
CONTINUOUS
 62
     7
100
AcDbLine
 10
-119.35
 20
-92.563553
 30
0.0
 11
-119.35
 21
-95.850021
 31
0.0
  0
LINE
  5
55
100
AcDbEntity
  8
CLASS1
  6
CONTINUOUS
 62
     7
100
AcDbLine
 10
-118.75
 20
-93.283157
 30
0.0
 11
-118.75
 21
-96.450012
 31
0.0
  0
LINE
  5
56
100
AcDbEntity
  8
CLASS1
  6
CONTINUOUS
 62
     7
100
AcDbLine
 10
-112.75
 20
-112.0
 30
0.0
 11
-112.75
 21
-117.0
 31
0.0
  0
LINE
  5
57
100
AcDbEntity
  8
CLASS1
  6
CONTINUOUS
 62
     7
100
AcDbLine
 10
-112.75
 20
-96.75
 30
0.0
 11
-112.75
 21
-97.0
 31
0.0
  0
LINE
  5
59
100
AcDbEntity
  8
CLASS1
  6
CENTER
 62
     7
100
AcDbLine
 10
-125.0
 20
-107.511281
 30
0.0
 11
-125.0
 21
-118.700001
 31
0.0
  0
ARC
  5
5A
100
AcDbEntity
  8
CLASS1
  6
CONTINUOUS
 62
     7
100
AcDbCircle
 10
-119.35
 20
-116.400001
 30
0.0
 40
0.6
100
AcDbArc
 50
270.000018
 51
0.0
  0
ARC
  5
5B
100
AcDbEntity
  8
CLASS1
  6
CONTINUOUS
 62
     7
100
AcDbCircle
 10
-119.35
 20
-87.600006
 30
0.0
 40
0.6
100
AcDbArc
 50
0.0
 51
89.999982
  0
ARC
  5
5C
100
AcDbEntity
  8
CLASS1
  6
CONTINUOUS
 62
     7
100
AcDbCircle
 10
-119.050001
 20
-97.050003
 30
0.0
 40
0.3
100
AcDbArc
 50
89.999982
 51
179.999964
  0
ARC
  5
5D
100
AcDbEntity
  8
CLASS1
  6
CONTINUOUS
 62
     7
100
AcDbCircle
 10
-119.05
 20
-96.450012
 30
0.0
 40
0.3
100
AcDbArc
 50
270.000018
 51
0.0
  0
ARC
  5
5E
100
AcDbEntity
  8
CLASS1
  6
CONTINUOUS
 62
     7
100
AcDbCircle
 10
-119.650002
 20
-96.450012
 30
0.0
 40
0.3
100
AcDbArc
 50
89.999982
 51
179.999964
  0
ARC
  5
5F
100
AcDbEntity
  8
CLASS1
  6
CONTINUOUS
 62
     7
100
AcDbCircle
 10
-119.650001
 20
-95.850021
 30
0.0
 40
0.3
100
AcDbArc
 50
270.000018
 51
0.0
  0
ARC
  5
60
100
AcDbEntity
  8
CLASS1
  6
CONTINUOUS
 62
     7
100
AcDbCircle
 10
-125.0
 20
-113.000015
 30
0.0
 40
4.0
100
AcDbArc
 50
62.720316
 51
85.698766
  0
ARC
  5
61
100
AcDbEntity
  8
CLASS1
  6
CONTINUOUS
 62
     7
100
AcDbCircle
 10
-126.375
 20
-110.333679
 30
0.0
 40
1.0
100
AcDbArc
 50
117.279758
 51
180.000292
  0
ARC
  5
62
100
AcDbEntity
  8
CLASS1
  6
CONTINUOUS
 62
     7
100
AcDbCircle
 10
-123.625
 20
-110.333679
 30
0.0
 40
1.0
100
AcDbArc
 50
359.99971
 51
62.720206
  0
ARC
  5
63
100
AcDbEntity
  8
CLASS1
  6
CONTINUOUS
 62
     7
100
AcDbCircle
 10
-125.0
 20
-113.000015
 30
0.0
 40
4.0
100
AcDbArc
 50
94.301198
 51
117.279648
  0
ARC
  5
64
100
AcDbEntity
  8
CLASS1
  6
CONTINUOUS
 62
     7
100
AcDbCircle
 10
-126.799999
 20
-116.400002
 30
0.0
 40
0.2
100
AcDbArc
 50
89.999982
 51
179.999964
  0
ARC
  5
65
100
AcDbEntity
  8
CLASS1
  6
CONTINUOUS
 62
     7
100
AcDbCircle
 10
-123.200001
 20
-116.400002
 30
0.0
 40
0.2
100
AcDbArc
 50
0.0
 51
89.999982
  0
ARC
  5
66
100
AcDbEntity
  8
CLASS1
  6
CONTINUOUS
 62
     7
100
AcDbCircle
 10
-126.799999
 20
-117.000001
 30
0.0
 40
0.2
100
AcDbArc
 50
179.999964
 51
270.000001
  0
ARC
  5
67
100
AcDbEntity
  8
CLASS1
  6
CONTINUOUS
 62
     7
100
AcDbCircle
 10
-123.200001
 20
-117.000001
 30
0.0
 40
0.2
100
AcDbArc
 50
270.000018
 51
0.0
  0
ARC
  5
68
100
AcDbEntity
  8
CLASS1
  6
CONTINUOUS
 62
     7
100
AcDbCircle
 10
-122.05
 20
-112.8
 30
0.0
 40
0.8
100
AcDbArc
 50
0.0
 51
89.999982
  0
ARC
  5
69
100
AcDbEntity
  8
CLASS1
  6
CONTINUOUS
 62
     7
100
AcDbCircle
 10
-120.023177
 20
-93.455948
 30
0.0
 40
1.117834
100
AcDbArc
 50
36.156429
 51
142.884443
  0
ARC
  5
6A
100
AcDbEntity
  8
CLASS1
  6
CONTINUOUS
 62
     7
100
AcDbCircle
 10
-118.352981
 20
-92.596359
 30
0.0
 40
0.793292
100
AcDbArc
 50
194.608171
 51
344.268223
  0
ARC
  5
6B
100
AcDbEntity
  8
CLASS1
  6
CONTINUOUS
 62
     7
100
AcDbCircle
 10
-120.023177
 20
-92.455948
 30
0.0
 40
1.117834
100
AcDbArc
 50
36.156429
 51
142.884443
  0
ARC
  5
6C
100
AcDbEntity
  8
CLASS1
  6
CONTINUOUS
 62
     7
100
AcDbCircle
 10
-118.352981
 20
-91.596359
 30
0.0
 40
0.793292
100
AcDbArc
 50
194.608171
 51
344.268223
  0
ARC
  5
6D
100
AcDbEntity
  8
CLASS1
  6
CONTINUOUS
 62
     7
100
AcDbCircle
 10
-120.023171
 20
-106.691147
 30
0.0
 40
1.117834
100
AcDbArc
 50
36.156433
 51
142.884443
  0
ARC
  5
6E
100
AcDbEntity
  8
CLASS1
  6
CONTINUOUS
 62
     7
100
AcDbCircle
 10
-118.352975
 20
-105.831558
 30
0.0
 40
0.793292
100
AcDbArc
 50
194.608335
 51
344.268223
  0
ARC
  5
6F
100
AcDbEntity
  8
CLASS1
  6
CONTINUOUS
 62
     7
100
AcDbCircle
 10
-120.023171
 20
-105.691147
 30
0.0
 40
1.117834
100
AcDbArc
 50
36.156433
 51
142.884443
  0
ARC
  5
70
100
AcDbEntity
  8
CLASS1
  6
CONTINUOUS
 62
     7
100
AcDbCircle
 10
-118.352975
 20
-104.831558
 30
0.0
 40
0.793292
100
AcDbArc
 50
194.608335
 51
344.268223
  0
TEXT
  5
71
100
AcDbEntity
  8
CLASS1
  6
CONTINUOUS
 62
     7
100
AcDbText
 10
-113.75
 20
-116.833333
 30
0.0
 40
3.0
  1
10
 50
90.0
 41
1.333333
 11
-115.25
 21
-116.833333
 31
0.0
100
AcDbText
 73
     2
  0
TEXT
  5
72
100
AcDbEntity
  8
CLASS1
  6
CONTINUOUS
 62
     7
100
AcDbText
 10
-113.75
 20
-94.557692
 30
0.0
 40
3.0
  1
0.5
 50
90.0
 41
1.384615
 11
-115.25
 21
-94.557692
 31
0.0
100
AcDbText
 73
     2
  0
POLYLINE
  5
73
100
AcDbEntity
  8
CLASS1
  6
CONTINUOUS
 62
     7
100
AcDb2dPolyline
 66
     1
 10
0.0
 20
0.0
 30
0.0
  0
VERTEX
  5
800
100
AcDbEntity
  8
CLASS1
  6
CONTINUOUS
 62
     7
100
AcDbVertex
100
AcDb2dVertex
 10
-131.25
 20
-112.0
 30
0.0
  0
VERTEX
  5
801
100
AcDbEntity
  8
CLASS1
  6
CONTINUOUS
 62
     7
100
AcDbVertex
100
AcDb2dVertex
 10
-134.714102
 20
-106.0
 30
0.0
  0
SEQEND
  5
802
100
AcDbEntity
  8
CLASS1
  6
CONTINUOUS
 62
     7
  0
INSERT
  5
74
100
AcDbEntity
  8
CLASS1
  6
CONTINUOUS
 62
     7
100
AcDbBlockReference
  2
_OPEN30
 10
-131.25
 20
-112.0
 30
0.0
 41
2.77
 42
2.77
 43
2.77
 50
300.0
  0
POLYLINE
  5
75
100
AcDbEntity
  8
CLASS1
  6
CONTINUOUS
 62
     7
100
AcDb2dPolyline
 66
     1
 10
0.0
 20
0.0
 30
0.0
  0
VERTEX
  5
803
100
AcDbEntity
  8
CLASS1
  6
CONTINUOUS
 62
     7
100
AcDbVertex
100
AcDb2dVertex
 10
-128.75
 20
-87.600006
 30
0.0
  0
VERTEX
  5
804
100
AcDbEntity
  8
CLASS1
  6
CONTINUOUS
 62
     7
100
AcDbVertex
100
AcDb2dVertex
 10
-132.214102
 20
-93.600006
 30
0.0
  0
SEQEND
  5
805
100
AcDbEntity
  8
CLASS1
  6
CONTINUOUS
 62
     7
  0
INSERT
  5
76
100
AcDbEntity
  8
CLASS1
  6
CONTINUOUS
 62
     7
100
AcDbBlockReference
  2
_OPEN30
 10
-128.75
 20
-87.600006
 30
0.0
 41
2.77
 42
2.77
 43
2.77
 50
60.0
  0
POLYLINE
  5
77
100
AcDbEntity
  8
CLASS1
  6
CONTINUOUS
 62
     7
100
AcDb2dPolyline
 66
     1
 10
0.0
 20
0.0
 30
0.0
  0
VERTEX
  5
806
100
AcDbEntity
  8
CLASS1
  6
CONTINUOUS
 62
     7
100
AcDbVertex
100
AcDb2dVertex
 10
-126.775
 20
-114.6
 30
0.0
  0
VERTEX
  5
807
100
AcDbEntity
  8
CLASS1
  6
CONTINUOUS
 62
     7
100
AcDbVertex
100
AcDb2dVertex
 10
-131.624742
 20
-123.0
 30
0.0
  0
SEQEND
  5
808
100
AcDbEntity
  8
CLASS1
  6
CONTINUOUS
 62
     7
  0
INSERT
  5
78
100
AcDbEntity
  8
CLASS1
  6
CONTINUOUS
 62
     7
100
AcDbBlockReference
  2
_OPEN30
 10
-126.775
 20
-114.6
 30
0.0
 41
2.77
 42
2.77
 43
2.77
 50
60.0
  0
POLYLINE
  5
79
100
AcDbEntity
  8
CLASS1
  6
CONTINUOUS
 62
     7
100
AcDb2dPolyline
 66
     1
 10
0.0
 20
0.0
 30
0.0
  0
VERTEX
  5
809
100
AcDbEntity
  8
CLASS1
  6
CONTINUOUS
 62
     7
100
AcDbVertex
100
AcDb2dVertex
 10
-112.75
 20
-112.0
 30
0.0
  0
VERTEX
  5
80A
100
AcDbEntity
  8
CLASS1
  6
CONTINUOUS
 62
     7
100
AcDbVertex
100
AcDb2dVertex
 10
-112.75
 20
-107.0
 30
0.0
  0
SEQEND
  5
80B
100
AcDbEntity
  8
CLASS1
  6
CONTINUOUS
 62
     7
  0
INSERT
  5
7A
100
AcDbEntity
  8
CLASS1
  6
CONTINUOUS
 62
     7
100
AcDbBlockReference
  2
_OPEN30
 10
-112.75
 20
-112.0
 30
0.0
 41
2.77
 42
2.77
 43
2.77
 50
270.0
  0
POLYLINE
  5
7B
100
AcDbEntity
  8
CLASS1
  6
CONTINUOUS
 62
     7
100
AcDb2dPolyline
 66
     1
 10
0.0
 20
0.0
 30
0.0
  0
VERTEX
  5
80C
100
AcDbEntity
  8
CLASS1
  6
CONTINUOUS
 62
     7
100
AcDbVertex
100
AcDb2dVertex
 10
-112.75
 20
-117.0
 30
0.0
  0
VERTEX
  5
80D
100
AcDbEntity
  8
CLASS1
  6
CONTINUOUS
 62
     7
100
AcDbVertex
100
AcDb2dVertex
 10
-112.75
 20
-122.0
 30
0.0
  0
SEQEND
  5
80E
100
AcDbEntity
  8
CLASS1
  6
CONTINUOUS
 62
     7
  0
INSERT
  5
7C
100
AcDbEntity
  8
CLASS1
  6
CONTINUOUS
 62
     7
100
AcDbBlockReference
  2
_OPEN30
 10
-112.75
 20
-117.0
 30
0.0
 41
2.77
 42
2.77
 43
2.77
 50
90.0
  0
POLYLINE
  5
7D
100
AcDbEntity
  8
CLASS1
  6
CONTINUOUS
 62
     7
100
AcDb2dPolyline
 66
     1
 10
0.0
 20
0.0
 30
0.0
  0
VERTEX
  5
80F
100
AcDbEntity
  8
CLASS1
  6
CONTINUOUS
 62
     7
100
AcDbVertex
100
AcDb2dVertex
 10
-112.75
 20
-96.75
 30
0.0
  0
VERTEX
  5
810
100
AcDbEntity
  8
CLASS1
  6
CONTINUOUS
 62
     7
100
AcDbVertex
100
AcDb2dVertex
 10
-112.75
 20
-86.25
 30
0.0
  0
SEQEND
  5
811
100
AcDbEntity
  8
CLASS1
  6
CONTINUOUS
 62
     7
  0
INSERT
  5
7E
100
AcDbEntity
  8
CLASS1
  6
CONTINUOUS
 62
     7
100
AcDbBlockReference
  2
_OPEN30
 10
-112.75
 20
-96.75
 30
0.0
 41
2.77
 42
2.77
 43
2.77
 50
270.0
  0
POLYLINE
  5
7F
100
AcDbEntity
  8
CLASS1
  6
CONTINUOUS
 62
     7
100
AcDb2dPolyline
 66
     1
 10
0.0
 20
0.0
 30
0.0
  0
VERTEX
  5
812
100
AcDbEntity
  8
CLASS1
  6
CONTINUOUS
 62
     7
100
AcDbVertex
100
AcDb2dVertex
 10
-112.75
 20
-97.0
 30
0.0
  0
VERTEX
  5
813
100
AcDbEntity
  8
CLASS1
  6
CONTINUOUS
 62
     7
100
AcDbVertex
100
AcDb2dVertex
 10
-112.75
 20
-102.0
 30
0.0
  0
SEQEND
  5
814
100
AcDbEntity
  8
CLASS1
  6
CONTINUOUS
 62
     7
  0
INSERT
  5
80
100
AcDbEntity
  8
CLASS1
  6
CONTINUOUS
 62
     7
100
AcDbBlockReference
  2
_OPEN30
 10
-112.75
 20
-97.0
 30
0.0
 41
2.77
 42
2.77
 43
2.77
 50
90.0
  0
TEXT
  5
81
100
AcDbEntity
  8
CLASS1
  6
CONTINUOUS
 62
     7
100
AcDbText
 10
-147.860036
 20
-122.5
 30
0.0
 40
3.0
  1
Rivet nut
 41
0.529412
 11
-147.860036
 21
-121.0
 31
0.0
100
AcDbText
 73
     2
  0
LINE
  5
82
100
AcDbEntity
  8
CLASS1
  6
CONTINUOUS
 62
     7
100
AcDbLine
 10
-131.624742
 20
-123.0
 30
0.0
 11
-148.965123
 21
-123.0
 31
0.0
  0
LINE
  5
83
100
AcDbEntity
  8
CLASS1
  6
CONTINUOUS
 62
     7
100
AcDbLine
 10
-154.5
 20
-130.4
 30
0.0
 11
-105.5
 21
-130.4
 31
0.0
  0
TEXT
  5
84
100
AcDbEntity
  8
CLASS1
  6
CONTINUOUS
 62
     7
100
AcDbText
 10
-152.810888
 20
-128.5
 30
0.0
 40
3.0
  1
Mounting plate installation (1:2)
 41
0.578223
 11
-152.810888
 21
-127.0
 31
0.0
100
AcDbText
 73
     2
  0
TEXT
  5
85
100
AcDbEntity
  8
CLASS1
  6
CONTINUOUS
 62
     7
100
AcDbText
 10
-156.551367
 20
-105.5
 30
0.0
 40
3.0
  1
Mounting plate
 41
0.525469
 11
-156.551367
 21
-104.0
 31
0.0
100
AcDbText
 73
     2
  0
LINE
  5
86
100
AcDbEntity
  8
CLASS1
  6
CONTINUOUS
 62
     7
100
AcDbLine
 10
-134.714102
 20
-106.0
 30
0.0
 11
-157.571195
 21
-106.0
 31
0.0
  0
TEXT
  5
87
100
AcDbEntity
  8
CLASS1
  6
CONTINUOUS
 62
     7
100
AcDbText
 10
-140.680768
 20
-93.594061
 30
0.0
 40
3.0
  1
Cover
 41
0.466667
 11
-140.680768
 21
-92.094061
 31
0.0
100
AcDbText
 73
     2
  0
LINE
  5
88
100
AcDbEntity
  8
CLASS1
  6
CONTINUOUS
 62
     7
100
AcDbLine
 10
-132.214102
 20
-93.600006
 30
0.0
 11
-141.350179
 21
-93.600006
 31
0.0
  0
LINE
  5
89
100
AcDbEntity
  8
CLASS1
  6
CONTINUOUS
 62
     7
100
AcDbLine
 10
10.431703
 20
-103.17695
 30
0.0
 11
11.431703
 21
-103.299735
 31
0.0
  0
LINE
  5
8A
100
AcDbEntity
  8
CLASS1
  6
CONTINUOUS
 62
     7
100
AcDbLine
 10
10.431703
 20
-98.02695
 30
0.0
 11
11.431703
 21
-97.904165
 31
0.0
  0
LINE
  5
8B
100
AcDbEntity
  8
CLASS1
  6
CONTINUOUS
 62
     7
100
AcDbLine
 10
14.481702
 20
-102.60195
 30
0.0
 11
23.528007
 21
-102.60195
 31
0.0
  0
LINE
  5
8C
100
AcDbEntity
  8
CLASS1
  6
CONTINUOUS
 62
     7
100
AcDbLine
 10
22.028007
 20
-97.60195
 30
0.0
 11
22.028007
 21
-102.60195
 31
0.0
  0
LINE
  5
8D
100
AcDbEntity
  8
CLASS1
  6
CONTINUOUS
 62
     7
100
AcDbLine
 10
-6.346349
 20
-112.474851
 30
0.0
 11
6.491691
 21
-112.474851
 31
0.0
  0
LINE
  5
8E
100
AcDbEntity
  8
CLASS1
  6
CONTINUOUS
 62
     7
100
AcDbLine
 10
5.955532
 20
-81.91371
 30
0.0
 11
21.293194
 21
-81.91371
 31
0.0
  0
LINE
  5
8F
100
AcDbEntity
  8
CLASS1
  6
CONTINUOUS
 62
     7
100
AcDbLine
 10
12.381702
 20
-102.60195
 30
0.0
 11
12.981702
 21
-102.60195
 31
0.0
  0
LINE
  5
90
100
AcDbEntity
  8
CLASS1
  6
CONTINUOUS
 62
     7
100
AcDbLine
 10
12.981702
 20
-98.20195
 30
0.0
 11
12.981702
 21
-102.60195
 31
0.0
  0
LINE
  5
91
100
AcDbEntity
  8
CLASS1
  6
CONTINUOUS
 62
     7
100
AcDbLine
 10
13.181703
 20
-102.35195
 30
0.0
 11
13.481702
 21
-102.35195
 31
0.0
  0
LINE
  5
92
100
AcDbEntity
  8
CLASS1
  6
CONTINUOUS
 62
     7
100
AcDbLine
 10
13.181703
 20
-98.85195
 30
0.0
 11
13.481702
 21
-98.85195
 31
0.0
  0
LINE
  5
93
100
AcDbEntity
  8
CLASS1
  6
CONTINUOUS
 62
     7
100
AcDbLine
 10
13.481702
 20
-98.85195
 30
0.0
 11
13.481702
 21
-102.35195
 31
0.0
  0
LINE
  5
94
100
AcDbEntity
  8
CLASS1
  6
CONTINUOUS
 62
     7
100
AcDbLine
 10
17.431702
 20
-101.65195
 30
0.0
 11
17.231702
 21
-101.85195
 31
0.0
  0
LINE
  5
95
100
AcDbEntity
  8
CLASS1
  6
CONTINUOUS
 62
     7
100
AcDbLine
 10
17.231702
 20
-99.35195
 30
0.0
 11
17.431702
 21
-99.551951
 31
0.0
  0
LINE
  5
96
100
AcDbEntity
  8
CLASS1
  6
CONTINUOUS
 62
     7
100
AcDbLine
 10
17.231703
 20
-99.35195
 30
0.0
 11
17.231703
 21
-101.85195
 31
0.0
  0
LINE
  5
97
100
AcDbEntity
  8
CLASS1
  6
CONTINUOUS
 62
     7
100
AcDbLine
 10
13.481702
 20
-101.65195
 30
0.0
 11
17.431703
 21
-101.65195
 31
0.0
  0
LINE
  5
98
100
AcDbEntity
  8
CLASS1
  6
CONTINUOUS
 62
     7
100
AcDbLine
 10
13.481702
 20
-99.551951
 30
0.0
 11
17.431703
 21
-99.551951
 31
0.0
  0
LINE
  5
99
100
AcDbEntity
  8
CLASS1
  6
CONTINUOUS
 62
     7
100
AcDbLine
 10
17.431703
 20
-99.551951
 30
0.0
 11
17.431703
 21
-101.65195
 31
0.0
  0
LINE
  5
9A
100
AcDbEntity
  8
CLASS1
  6
CONTINUOUS
 62
     7
100
AcDbLine
 10
11.431703
 20
-103.60195
 30
0.0
 11
11.781703
 21
-103.60195
 31
0.0
  0
LINE
  5
9B
100
AcDbEntity
  8
CLASS1
  6
CONTINUOUS
 62
     7
100
AcDbLine
 10
11.431703
 20
-97.60195
 30
0.0
 11
11.781703
 21
-97.60195
 31
0.0
  0
LINE
  5
9C
100
AcDbEntity
  8
CLASS1
  6
CONTINUOUS
 62
     7
100
AcDbLine
 10
13.481702
 20
-101.85195
 30
0.0
 11
17.231703
 21
-101.85195
 31
0.0
  0
LINE
  5
9D
100
AcDbEntity
  8
CLASS1
  6
CONTINUOUS
 62
     7
100
AcDbLine
 10
13.481702
 20
-99.35195
 30
0.0
 11
17.231703
 21
-99.35195
 31
0.0
  0
LINE
  5
9E
100
AcDbEntity
  8
CLASS1
  6
CONTINUOUS
 62
     7
100
AcDbLine
 10
12.381702
 20
-97.60195
 30
0.0
 11
11.781703
 21
-97.60195
 31
0.0
  0
LINE
  5
9F
100
AcDbEntity
  8
CLASS1
  6
CONTINUOUS
 62
     7
100
AcDbLine
 10
11.781703
 20
-97.60195
 30
0.0
 11
11.781703
 21
-122.60195
 31
0.0
  0
LINE
  5
A0
100
AcDbEntity
  8
CLASS1
  6
CONTINUOUS
 62
     7
100
AcDbLine
 10
12.381702
 20
-97.60195
 30
0.0
 11
12.381702
 21
-122.594748
 31
0.0
  0
ARC
  5
A1
100
AcDbEntity
  8
CLASS1
  6
CONTINUOUS
 62
     7
100
AcDbCircle
 10
13.181703
 20
-102.551951
 30
0.0
 40
0.2
100
AcDbArc
 50
89.999982
 51
179.999964
  0
ARC
  5
A2
100
AcDbEntity
  8
CLASS1
  6
CONTINUOUS
 62
     7
100
AcDbCircle
 10
13.181703
 20
-98.65195
 30
0.0
 40
0.2
100
AcDbArc
 50
179.999964
 51
270.000001
  0
ARC
  5
A3
100
AcDbEntity
  8
CLASS1
  6
CONTINUOUS
 62
     7
100
AcDbCircle
 10
12.981702
 20
-98.20195
 30
0.0
 40
0.6
100
AcDbArc
 50
89.999982
 51
179.999964
  0
TEXT
  5
A4
100
AcDbEntity
  8
CLASS1
  6
CONTINUOUS
 62
     7
100
AcDbText
 10
21.028007
 20
-109.10195
 30
0.0
 40
3.0
  1
10
 50
90.000003
 41
1.333333
 72
     1
 11
19.528007
 21
-106.10195
 31
0.0
100
AcDbText
 73
     2
  0
TEXT
  5
A5
100
AcDbEntity
  8
CLASS1
  6
CONTINUOUS
 62
     7
100
AcDbText
 10
-5.491821
 20
-111.636596
 30
0.0
 40
3.0
  1
Cover
 41
0.466667
 11
-5.491821
 21
-110.136596
 31
0.0
100
AcDbText
 73
     2
  0
TEXT
  5
A6
100
AcDbEntity
  8
CLASS1
  6
CONTINUOUS
 62
     7
100
AcDbText
 10
6.556894
 20
-81.209509
 30
0.0
 40
3.0
  1
Body
 41
0.466667
 11
6.556894
 21
-79.709509
 31
0.0
100
AcDbText
 73
     2
  0
POLYLINE
  5
A7
100
AcDbEntity
  8
CLASS1
  6
CONTINUOUS
 62
     7
100
AcDb2dPolyline
 66
     1
 10
0.0
 20
0.0
 30
0.0
  0
VERTEX
  5
815
100
AcDbEntity
  8
CLASS1
  6
CONTINUOUS
 62
     7
100
AcDbVertex
100
AcDb2dVertex
 10
22.028007
 20
-102.60195
 30
0.0
  0
VERTEX
  5
816
100
AcDbEntity
  8
CLASS1
  6
CONTINUOUS
 62
     7
100
AcDbVertex
100
AcDb2dVertex
 10
22.028007
 20
-110.64823
 30
0.0
  0
SEQEND
  5
817
100
AcDbEntity
  8
CLASS1
  6
CONTINUOUS
 62
     7
  0
INSERT
  5
A8
100
AcDbEntity
  8
CLASS1
  6
CONTINUOUS
 62
     7
100
AcDbBlockReference
  2
_OPEN30
 10
22.028007
 20
-102.60195
 30
0.0
 41
2.77
 42
2.77
 43
2.77
 50
90.0
  0
POLYLINE
  5
A9
100
AcDbEntity
  8
CLASS1
  6
CONTINUOUS
 62
     7
100
AcDb2dPolyline
 66
     1
 10
0.0
 20
0.0
 30
0.0
  0
VERTEX
  5
818
100
AcDbEntity
  8
CLASS1
  6
CONTINUOUS
 62
     7
100
AcDbVertex
100
AcDb2dVertex
 10
22.028007
 20
-97.60195
 30
0.0
  0
VERTEX
  5
819
100
AcDbEntity
  8
CLASS1
  6
CONTINUOUS
 62
     7
100
AcDbVertex
100
AcDb2dVertex
 10
22.028007
 20
-92.537559
 30
0.0
  0
SEQEND
  5
81A
100
AcDbEntity
  8
CLASS1
  6
CONTINUOUS
 62
     7
  0
INSERT
  5
AA
100
AcDbEntity
  8
CLASS1
  6
CONTINUOUS
 62
     7
100
AcDbBlockReference
  2
_OPEN30
 10
22.028007
 20
-97.60195
 30
0.0
 41
2.77
 42
2.77
 43
2.77
 50
270.0
  0
POLYLINE
  5
AB
100
AcDbEntity
  8
CLASS1
  6
CONTINUOUS
 62
     7
100
AcDb2dPolyline
 66
     1
 10
0.0
 20
0.0
 30
0.0
  0
VERTEX
  5
81B
100
AcDbEntity
  8
CLASS1
  6
CONTINUOUS
 62
     7
100
AcDbVertex
100
AcDb2dVertex
 10
11.781703
 20
-107.184839
 30
0.0
  0
VERTEX
  5
81C
100
AcDbEntity
  8
CLASS1
  6
CONTINUOUS
 62
     7
100
AcDbVertex
100
AcDb2dVertex
 10
6.491692
 20
-112.47485
 30
0.0
  0
SEQEND
  5
81D
100
AcDbEntity
  8
CLASS1
  6
CONTINUOUS
 62
     7
  0
INSERT
  5
AC
100
AcDbEntity
  8
CLASS1
  6
CONTINUOUS
 62
     7
100
AcDbBlockReference
  2
_OPEN30
 10
11.781703
 20
-107.184839
 30
0.0
 41
2.77
 42
2.77
 43
2.77
 50
45.000003
  0
POLYLINE
  5
AD
100
AcDbEntity
  8
CLASS1
  6
CONTINUOUS
 62
     7
100
AcDb2dPolyline
 66
     1
 10
0.0
 20
0.0
 30
0.0
  0
VERTEX
  5
81E
100
AcDbEntity
  8
CLASS1
  6
CONTINUOUS
 62
     7
100
AcDbVertex
100
AcDb2dVertex
 10
10.0
 20
-100.0
 30
0.0
  0
VERTEX
  5
81F
100
AcDbEntity
  8
CLASS1
  6
CONTINUOUS
 62
     7
100
AcDbVertex
100
AcDb2dVertex
 10
3.952178
 20
-92.21048
 30
0.0
  0
VERTEX
  5
820
100
AcDbEntity
  8
CLASS1
  6
CONTINUOUS
 62
     7
100
AcDbVertex
100
AcDb2dVertex
 10
-25.429547
 20
-92.21048
 30
0.0
  0
SEQEND
  5
821
100
AcDbEntity
  8
CLASS1
  6
CONTINUOUS
 62
     7
  0
INSERT
  5
AE
100
AcDbEntity
  8
CLASS1
  6
CONTINUOUS
 62
     7
100
AcDbBlockReference
  2
_OPEN30
 10
10.0
 20
-100.0
 30
0.0
 41
2.77
 42
2.77
 43
2.77
 50
307.825945
  0
TEXT
  5
AF
100
AcDbEntity
  8
CLASS1
  6
CONTINUOUS
 62
     7
100
AcDbText
 10
-25.172927
 20
-90.71048
 30
0.0
 40
3.0
  1
Cover screw, M5-12
 41
0.513238
 11
-25.172927
 21
-89.21048
 31
0.0
100
AcDbText
 73
     2
  0
TEXT
  5
B0
100
AcDbEntity
  8
CLASS1
  6
CONTINUOUS
 62
     7
100
AcDbText
 10
-24.503477
 20
-96.71048
 30
0.0
 40
3.0
  1
(Lower screw is with
 41
0.544747
 11
-24.503477
 21
-95.21048
 31
0.0
100
AcDbText
 73
     2
  0
TEXT
  5
B1
100
AcDbEntity
  8
CLASS1
  6
CONTINUOUS
 62
     7
100
AcDbText
 10
-25.175463
 20
-100.71048
 30
0.0
 40
3.0
  1
toothed lock washer)
 41
0.508167
 11
-25.175463
 21
-99.21048
 31
0.0
100
AcDbText
 73
     2
  0
LINE
  5
B2
100
AcDbEntity
  8
CLASS1
  6
CONTINUOUS
 62
     7
100
AcDbLine
 10
10.431703
 20
-103.17695
 30
0.0
 11
10.431703
 21
-98.02695
 31
0.0
  0
LINE
  5
B3
100
AcDbEntity
  8
CLASS1
  6
CONTINUOUS
 62
     7
100
AcDbLine
 10
11.431703
 20
-103.60195
 30
0.0
 11
11.431703
 21
-97.60195
 31
0.0
  0
ARC
  5
B4
100
AcDbEntity
  8
CLASS1
  6
CONTINUOUS
 62
     7
100
AcDbCircle
 10
17.475805
 20
-100.60195
 30
0.0
 40
7.5
100
AcDbArc
 50
159.919911
 51
200.080089
  0
LINE
  5
B5
100
AcDbEntity
  8
CLASS1
  6
CONTINUOUS
 62
     7
100
AcDbLine
 10
12.981702
 20
-98.20195
 30
0.0
 11
36.7745
 21
-98.20195
 31
0.0
  0
LINE
  5
B6
100
AcDbEntity
  8
CLASS1
  6
CONTINUOUS
 62
     7
100
AcDbLine
 10
12.981702
 20
-97.60195
 30
0.0
 11
36.781703
 21
-97.60195
 31
0.0
  0
POLYLINE
  5
B7
100
AcDbEntity
  8
CLASS1
  6
CONTINUOUS
 62
     7
100
AcDb2dPolyline
 66
     1
 10
0.0
 20
0.0
 30
0.0
  0
VERTEX
  5
822
100
AcDbEntity
  8
CLASS1
  6
CONTINUOUS
 62
     7
100
AcDbVertex
100
AcDb2dVertex
 10
30.35081
 20
-97.60195
 30
0.0
  0
VERTEX
  5
823
100
AcDbEntity
  8
CLASS1
  6
CONTINUOUS
 62
     7
100
AcDbVertex
100
AcDb2dVertex
 10
21.293197
 20
-81.913714
 30
0.0
  0
SEQEND
  5
824
100
AcDbEntity
  8
CLASS1
  6
CONTINUOUS
 62
     7
  0
INSERT
  5
B8
100
AcDbEntity
  8
CLASS1
  6
CONTINUOUS
 62
     7
100
AcDbBlockReference
  2
_OPEN30
 10
30.35081
 20
-97.60195
 30
0.0
 41
2.77
 42
2.77
 43
2.77
 50
300.000014
  0
LINE
  5
B9
100
AcDbEntity
  8
CLASS1
  6
CONTINUOUS
 62
     7
100
AcDbLine
 10
-4.318297
 20
-130.00195
 30
0.0
 11
27.881702
 21
-130.00195
 31
0.0
  0
TEXT
  5
BA
100
AcDbEntity
  8
CLASS1
  6
CONTINUOUS
 62
     7
100
AcDbText
 10
-2.637763
 20
-128.10195
 30
0.0
 40
3.0
  1
Cross section A (1:2)
 41
0.561069
 11
-2.637763
 21
-126.60195
 31
0.0
100
AcDbText
 73
     2
  0
TEXT
  5
BB
100
AcDbEntity
  8
CLASS1
  6
CONTINUOUS
 62
     7
100
AcDbText
 10
60.916667
 20
-132.5
 30
0.0
 40
3.0
  1
２．２ｋｇ
 41
0.833333
 11
60.916667
 21
-131.0
 31
0.0
100
AcDbText
 73
     2
  0
TEXT
  5
BC
100
AcDbEntity
  8
CLASS1
  6
CONTINUOUS
 62
     7
100
AcDbText
 10
61.025
 20
-127.5
 30
0.0
 40
3.0
  1
ＩＰ３Ｘ
 41
0.75
 11
61.025
 21
-126.0
 31
0.0
100
AcDbText
 73
     2
  0
TEXT
  5
BD
100
AcDbEntity
  8
CLASS1
  6
CONTINUOUS
 62
     7
100
AcDbText
 10
61.568542
 20
-122.5
 30
0.0
 40
3.0
  1
Standard / Light beige (5Y7/1)
 41
0.537084
 11
61.568542
 21
-121.0
 31
0.0
100
AcDbText
 73
     2
  0
TEXT
  5
BE
100
AcDbEntity
  8
CLASS1
  6
CONTINUOUS
 62
     7
100
AcDbText
 10
89.166667
 20
-117.5
 30
0.0
 40
3.0
  1
t1.6
 41
1.333333
 11
89.166667
 21
-116.0
 31
0.0
100
AcDbText
 73
     2
  0
TEXT
  5
BF
100
AcDbEntity
  8
CLASS1
  6
CONTINUOUS
 62
     7
100
AcDbText
 10
61.37037
 20
-117.5
 30
0.0
 40
3.0
  1
Steel
 41
0.740741
 11
61.37037
 21
-116.0
 31
0.0
100
AcDbText
 73
     2
  0
TEXT
  5
C0
100
AcDbEntity
  8
CLASS1
  6
CONTINUOUS
 62
     7
100
AcDbText
 10
89.166667
 20
-112.5
 30
0.0
 40
3.0
  1
t1.2
 41
1.333333
 11
89.166667
 21
-111.0
 31
0.0
100
AcDbText
 73
     2
  0
TEXT
  5
C1
100
AcDbEntity
  8
CLASS1
  6
CONTINUOUS
 62
     7
100
AcDbText
 10
61.37037
 20
-112.5
 30
0.0
 40
3.0
  1
Steel
 41
0.740741
 11
61.37037
 21
-111.0
 31
0.0
100
AcDbText
 73
     2
  0
TEXT
  5
C2
100
AcDbEntity
  8
CLASS1
  6
CONTINUOUS
 62
     7
100
AcDbText
 10
89.166667
 20
-107.5
 30
0.0
 40
3.0
  1
t1.2
 41
1.333333
 11
89.166667
 21
-106.0
 31
0.0
100
AcDbText
 73
     2
  0
TEXT
  5
C3
100
AcDbEntity
  8
CLASS1
  6
CONTINUOUS
 62
     7
100
AcDbText
 10
61.37037
 20
-107.5
 30
0.0
 40
3.0
  1
Steel
 41
0.740741
 11
61.37037
 21
-106.0
 31
0.0
100
AcDbText
 73
     2
  0
TEXT
  5
C4
100
AcDbEntity
  8
CLASS1
  6
CONTINUOUS
 62
     7
100
AcDbText
 10
61.560274
 20
-102.5
 30
0.0
 40
3.0
  1
Indoor use, TE12-22
 41
0.520548
 11
61.560274
 21
-101.0
 31
0.0
100
AcDbText
 73
     2
  0
TEXT
  5
C5
100
AcDbEntity
  8
CLASS1
  6
CONTINUOUS
 62
     7
100
AcDbText
 10
143.0
 20
-103.0
 30
0.0
 40
4.0
  1
ＴＥ１２－２２
 41
0.833333
 72
     1
 11
157.0
 21
-101.0
 31
0.0
100
AcDbText
 73
     2
  0
TEXT
  5
C6
100
AcDbEntity
  8
CLASS1
  6
CONTINUOUS
 62
     7
100
AcDbText
 10
186.5
 20
-116.5
 30
0.0
 40
3.0
  1
1
 41
1.5
 72
     1
 11
188.0
 21
-115.0
 31
0.0
100
AcDbText
 73
     2
  0
TEXT
  5
C7
100
AcDbEntity
  8
CLASS1
  6
CONTINUOUS
 62
     7
100
AcDbText
 10
183.5
 20
-112.5
 30
0.0
 40
3.0
  1
1
 41
1.5
 72
     1
 11
185.0
 21
-111.0
 31
0.0
100
AcDbText
 73
     2
  0
TEXT
  5
C8
100
AcDbEntity
  8
CLASS1
  6
CONTINUOUS
 62
     7
100
AcDbText
 10
180.764706
 20
-124.0
 30
0.0
 40
2.0
  1
SUZUKI
 41
0.794118
 11
180.764706
 21
-123.0
 31
0.0
100
AcDbText
 73
     2
  0
TEXT
  5
C9
100
AcDbEntity
  8
CLASS1
  6
CONTINUOUS
 62
     7
100
AcDbText
 10
161.75
 20
-124.0
 30
0.0
 40
2.0
  1
NGUYEN
 41
0.75
 11
161.75
 21
-123.0
 31
0.0
100
AcDbText
 73
     2
  0
TEXT
  5
CA
100
AcDbEntity
  8
CLASS1
  6
CONTINUOUS
 62
     7
100
AcDbText
 10
142.764706
 20
-124.0
 30
0.0
 40
2.0
  1
SUZUKI
 41
0.794118
 11
142.764706
 21
-123.0
 31
0.0
100
AcDbText
 73
     2
  0
TEXT
  5
CB
100
AcDbEntity
  8
CLASS1
  6
CONTINUOUS
 62
     7
100
AcDbText
 10
128.75
 20
-124.0
 30
0.0
 40
2.0
  1
1:5
 41
1.125
 72
     1
 11
131.0
 21
-123.0
 31
0.0
100
AcDbText
 73
     2
  0
TEXT
  5
CC
100
AcDbEntity
  8
CLASS1
  6
CONTINUOUS
 62
     7
100
AcDbText
 10
125.432191
 20
-132.5
 30
0.0
 40
3.0
  1
Date:       25 /  Mar. / 2021
 41
0.864382
 11
125.432191
 21
-131.0
 31
0.0
100
AcDbText
 73
     2
  0
TEXT
  5
CD
100
AcDbEntity
  8
CLASS1
  6
CONTINUOUS
 62
     7
100
AcDbText
 10
47.766667
 20
-111.0
 30
0.0
 40
2.0
  1
Door/
 41
0.65
 11
47.766667
 21
-109.0
 31
0.0
100
AcDbText
 73
     3
  0
TEXT
  5
CE
100
AcDbEntity
  8
CLASS1
  6
CONTINUOUS
 62
     7
100
AcDbText
 10
47.766667
 20
-113.0
 30
0.0
 40
2.0
  1
Cover
 41
0.65
 11
47.766667
 21
-111.0
 31
0.0
100
AcDbText
 73
     3
  0
POLYLINE
  5
CF
100
AcDbEntity
  8
CLASS1
  6
CONTINUOUS
 62
     7
100
AcDb2dPolyline
 66
     1
 10
0.0
 20
0.0
 30
0.0
 40
0.8
 41
0.8
  0
VERTEX
  5
825
100
AcDbEntity
  8
CLASS1
  6
CONTINUOUS
 62
     7
100
AcDbVertex
100
AcDb2dVertex
 10
-192.0
 20
-133.5
 30
0.0
  0
VERTEX
  5
826
100
AcDbEntity
  8
CLASS1
  6
CONTINUOUS
 62
     7
100
AcDbVertex
100
AcDb2dVertex
 10
192.0
 20
-133.5
 30
0.0
  0
SEQEND
  5
827
100
AcDbEntity
  8
CLASS1
  6
CONTINUOUS
 62
     7
  0
POLYLINE
  5
D0
100
AcDbEntity
  8
CLASS1
  6
CONTINUOUS
 62
     7
100
AcDb2dPolyline
 66
     1
 10
0.0
 20
0.0
 30
0.0
 40
0.4
 41
0.4
  0
VERTEX
  5
828
100
AcDbEntity
  8
CLASS1
  6
CONTINUOUS
 62
     7
100
AcDbVertex
100
AcDb2dVertex
 10
-192.0
 20
-133.3
 30
0.0
 42
1.0
  0
VERTEX
  5
829
100
AcDbEntity
  8
CLASS1
  6
CONTINUOUS
 62
     7
100
AcDbVertex
100
AcDb2dVertex
 10
-192.0
 20
-133.7
 30
0.0
 42
1.0
  0
SEQEND
  5
82A
100
AcDbEntity
  8
CLASS1
  6
CONTINUOUS
 62
     7
  0
POLYLINE
  5
D1
100
AcDbEntity
  8
CLASS1
  6
CONTINUOUS
 62
     7
100
AcDb2dPolyline
 66
     1
 10
0.0
 20
0.0
 30
0.0
 40
0.4
 41
0.4
  0
VERTEX
  5
82B
100
AcDbEntity
  8
CLASS1
  6
CONTINUOUS
 62
     7
100
AcDbVertex
100
AcDb2dVertex
 10
192.0
 20
-133.3
 30
0.0
 42
-1.0
  0
VERTEX
  5
82C
100
AcDbEntity
  8
CLASS1
  6
CONTINUOUS
 62
     7
100
AcDbVertex
100
AcDb2dVertex
 10
192.0
 20
-133.7
 30
0.0
 42
-1.0
  0
SEQEND
  5
82D
100
AcDbEntity
  8
CLASS1
  6
CONTINUOUS
 62
     7
  0
POLYLINE
  5
D2
100
AcDbEntity
  8
CLASS1
  6
CONTINUOUS
 62
     7
100
AcDb2dPolyline
 66
     1
 10
0.0
 20
0.0
 30
0.0
 40
0.8
 41
0.8
  0
VERTEX
  5
82E
100
AcDbEntity
  8
CLASS1
  6
CONTINUOUS
 62
     7
100
AcDbVertex
100
AcDb2dVertex
 10
192.0
 20
133.5
 30
0.0
  0
VERTEX
  5
82F
100
AcDbEntity
  8
CLASS1
  6
CONTINUOUS
 62
     7
100
AcDbVertex
100
AcDb2dVertex
 10
-192.0
 20
133.5
 30
0.0
  0
SEQEND
  5
830
100
AcDbEntity
  8
CLASS1
  6
CONTINUOUS
 62
     7
  0
POLYLINE
  5
D3
100
AcDbEntity
  8
CLASS1
  6
CONTINUOUS
 62
     7
100
AcDb2dPolyline
 66
     1
 10
0.0
 20
0.0
 30
0.0
 40
0.4
 41
0.4
  0
VERTEX
  5
831
100
AcDbEntity
  8
CLASS1
  6
CONTINUOUS
 62
     7
100
AcDbVertex
100
AcDb2dVertex
 10
192.0
 20
133.3
 30
0.0
 42
1.0
  0
VERTEX
  5
832
100
AcDbEntity
  8
CLASS1
  6
CONTINUOUS
 62
     7
100
AcDbVertex
100
AcDb2dVertex
 10
192.0
 20
133.7
 30
0.0
 42
1.0
  0
SEQEND
  5
833
100
AcDbEntity
  8
CLASS1
  6
CONTINUOUS
 62
     7
  0
POLYLINE
  5
D4
100
AcDbEntity
  8
CLASS1
  6
CONTINUOUS
 62
     7
100
AcDb2dPolyline
 66
     1
 10
0.0
 20
0.0
 30
0.0
 40
0.4
 41
0.4
  0
VERTEX
  5
834
100
AcDbEntity
  8
CLASS1
  6
CONTINUOUS
 62
     7
100
AcDbVertex
100
AcDb2dVertex
 10
-192.0
 20
133.3
 30
0.0
 42
-1.0
  0
VERTEX
  5
835
100
AcDbEntity
  8
CLASS1
  6
CONTINUOUS
 62
     7
100
AcDbVertex
100
AcDb2dVertex
 10
-192.0
 20
133.7
 30
0.0
 42
-1.0
  0
SEQEND
  5
836
100
AcDbEntity
  8
CLASS1
  6
CONTINUOUS
 62
     7
  0
POLYLINE
  5
D5
100
AcDbEntity
  8
CLASS1
  6
CONTINUOUS
 62
     7
100
AcDb2dPolyline
 66
     1
 10
0.0
 20
0.0
 30
0.0
 40
0.8
 41
0.8
  0
VERTEX
  5
837
100
AcDbEntity
  8
CLASS1
  6
CONTINUOUS
 62
     7
100
AcDbVertex
100
AcDb2dVertex
 10
-192.0
 20
-133.5
 30
0.0
  0
VERTEX
  5
838
100
AcDbEntity
  8
CLASS1
  6
CONTINUOUS
 62
     7
100
AcDbVertex
100
AcDb2dVertex
 10
-192.0
 20
133.5
 30
0.0
  0
SEQEND
  5
839
100
AcDbEntity
  8
CLASS1
  6
CONTINUOUS
 62
     7
  0
POLYLINE
  5
D6
100
AcDbEntity
  8
CLASS1
  6
CONTINUOUS
 62
     7
100
AcDb2dPolyline
 66
     1
 10
0.0
 20
0.0
 30
0.0
 40
0.4
 41
0.4
  0
VERTEX
  5
83A
100
AcDbEntity
  8
CLASS1
  6
CONTINUOUS
 62
     7
100
AcDbVertex
100
AcDb2dVertex
 10
-192.2
 20
-133.5
 30
0.0
 42
1.0
  0
VERTEX
  5
83B
100
AcDbEntity
  8
CLASS1
  6
CONTINUOUS
 62
     7
100
AcDbVertex
100
AcDb2dVertex
 10
-191.8
 20
-133.5
 30
0.0
 42
1.0
  0
SEQEND
  5
83C
100
AcDbEntity
  8
CLASS1
  6
CONTINUOUS
 62
     7
  0
POLYLINE
  5
D7
100
AcDbEntity
  8
CLASS1
  6
CONTINUOUS
 62
     7
100
AcDb2dPolyline
 66
     1
 10
0.0
 20
0.0
 30
0.0
 40
0.4
 41
0.4
  0
VERTEX
  5
83D
100
AcDbEntity
  8
CLASS1
  6
CONTINUOUS
 62
     7
100
AcDbVertex
100
AcDb2dVertex
 10
-192.2
 20
133.5
 30
0.0
 42
-1.0
  0
VERTEX
  5
83E
100
AcDbEntity
  8
CLASS1
  6
CONTINUOUS
 62
     7
100
AcDbVertex
100
AcDb2dVertex
 10
-191.8
 20
133.5
 30
0.0
 42
-1.0
  0
SEQEND
  5
83F
100
AcDbEntity
  8
CLASS1
  6
CONTINUOUS
 62
     7
  0
POLYLINE
  5
D8
100
AcDbEntity
  8
CLASS1
  6
CONTINUOUS
 62
     7
100
AcDb2dPolyline
 66
     1
 10
0.0
 20
0.0
 30
0.0
 40
0.8
 41
0.8
  0
VERTEX
  5
840
100
AcDbEntity
  8
CLASS1
  6
CONTINUOUS
 62
     7
100
AcDbVertex
100
AcDb2dVertex
 10
192.0
 20
-133.5
 30
0.0
  0
VERTEX
  5
841
100
AcDbEntity
  8
CLASS1
  6
CONTINUOUS
 62
     7
100
AcDbVertex
100
AcDb2dVertex
 10
192.0
 20
133.5
 30
0.0
  0
SEQEND
  5
842
100
AcDbEntity
  8
CLASS1
  6
CONTINUOUS
 62
     7
  0
POLYLINE
  5
D9
100
AcDbEntity
  8
CLASS1
  6
CONTINUOUS
 62
     7
100
AcDb2dPolyline
 66
     1
 10
0.0
 20
0.0
 30
0.0
 40
0.4
 41
0.4
  0
VERTEX
  5
843
100
AcDbEntity
  8
CLASS1
  6
CONTINUOUS
 62
     7
100
AcDbVertex
100
AcDb2dVertex
 10
191.8
 20
-133.5
 30
0.0
 42
1.0
  0
VERTEX
  5
844
100
AcDbEntity
  8
CLASS1
  6
CONTINUOUS
 62
     7
100
AcDbVertex
100
AcDb2dVertex
 10
192.2
 20
-133.5
 30
0.0
 42
1.0
  0
SEQEND
  5
845
100
AcDbEntity
  8
CLASS1
  6
CONTINUOUS
 62
     7
  0
POLYLINE
  5
DA
100
AcDbEntity
  8
CLASS1
  6
CONTINUOUS
 62
     7
100
AcDb2dPolyline
 66
     1
 10
0.0
 20
0.0
 30
0.0
 40
0.4
 41
0.4
  0
VERTEX
  5
846
100
AcDbEntity
  8
CLASS1
  6
CONTINUOUS
 62
     7
100
AcDbVertex
100
AcDb2dVertex
 10
191.8
 20
133.5
 30
0.0
 42
-1.0
  0
VERTEX
  5
847
100
AcDbEntity
  8
CLASS1
  6
CONTINUOUS
 62
     7
100
AcDbVertex
100
AcDb2dVertex
 10
192.2
 20
133.5
 30
0.0
 42
-1.0
  0
SEQEND
  5
848
100
AcDbEntity
  8
CLASS1
  6
CONTINUOUS
 62
     7
  0
LINE
  5
DB
100
AcDbEntity
  8
CLASS1
  6
CONTINUOUS
 62
     7
100
AcDbLine
 10
117.0
 20
-133.5
 30
0.0
 11
117.0
 21
-93.5
 31
0.0
  0
LINE
  5
DC
100
AcDbEntity
  8
CLASS1
  6
CONTINUOUS
 62
     7
100
AcDbLine
 10
47.0
 20
-128.5
 30
0.0
 11
192.0
 21
-128.5
 31
0.0
  0
LINE
  5
DD
100
AcDbEntity
  8
CLASS1
  6
CONTINUOUS
 62
     7
100
AcDbLine
 10
47.0
 20
-123.5
 30
0.0
 11
117.0
 21
-123.5
 31
0.0
  0
LINE
  5
DE
100
AcDbEntity
  8
CLASS1
  6
CONTINUOUS
 62
     7
100
AcDbLine
 10
47.0
 20
-118.5
 30
0.0
 11
117.0
 21
-118.5
 31
0.0
  0
LINE
  5
DF
100
AcDbEntity
  8
CLASS1
  6
CONTINUOUS
 62
     7
100
AcDbLine
 10
47.0
 20
-98.5
 30
0.0
 11
117.0
 21
-98.5
 31
0.0
  0
LINE
  5
E0
100
AcDbEntity
  8
CLASS1
  6
CONTINUOUS
 62
     7
100
AcDbLine
 10
47.0
 20
-103.5
 30
0.0
 11
117.0
 21
-103.5
 31
0.0
  0
LINE
  5
E1
100
AcDbEntity
  8
CLASS1
  6
CONTINUOUS
 62
     7
100
AcDbLine
 10
47.0
 20
-108.5
 30
0.0
 11
192.0
 21
-108.5
 31
0.0
  0
LINE
  5
E2
100
AcDbEntity
  8
CLASS1
  6
CONTINUOUS
 62
     7
100
AcDbLine
 10
47.0
 20
-113.5
 30
0.0
 11
117.0
 21
-113.5
 31
0.0
  0
LINE
  5
E3
100
AcDbEntity
  8
CLASS1
  6
CONTINUOUS
 62
     7
100
AcDbLine
 10
192.0
 20
-117.5
 30
0.0
 11
117.0
 21
-117.5
 31
0.0
  0
LINE
  5
E4
100
AcDbEntity
  8
CLASS1
  6
CONTINUOUS
 62
     7
100
AcDbLine
 10
182.0
 20
-108.5
 30
0.0
 11
182.0
 21
-117.5
 31
0.0
  0
LINE
  5
E5
100
AcDbEntity
  8
CLASS1
  6
CONTINUOUS
 62
     7
100
AcDbLine
 10
59.0
 20
-133.5
 30
0.0
 11
59.0
 21
-118.5
 31
0.0
  0
LINE
  5
E6
100
AcDbEntity
  8
CLASS1
  6
CONTINUOUS
 62
     7
100
AcDbLine
 10
59.0
 20
-98.5
 30
0.0
 11
59.0
 21
-118.5
 31
0.0
  0
LINE
  5
E7
100
AcDbEntity
  8
CLASS1
  6
CONTINUOUS
 62
     7
100
AcDbLine
 10
122.0
 20
-93.5
 30
0.0
 11
122.0
 21
-128.5
 31
0.0
  0
LINE
  5
E8
100
AcDbEntity
  8
CLASS1
  6
CONTINUOUS
 62
     7
100
AcDbLine
 10
127.0
 20
-128.5
 30
0.0
 11
127.0
 21
-117.5
 31
0.0
  0
LINE
  5
E9
100
AcDbEntity
  8
CLASS1
  6
CONTINUOUS
 62
     7
100
AcDbLine
 10
135.0
 20
-128.5
 30
0.0
 11
135.0
 21
-117.5
 31
0.0
  0
LINE
  5
EA
100
AcDbEntity
  8
CLASS1
  6
CONTINUOUS
 62
     7
100
AcDbLine
 10
140.0
 20
-128.5
 30
0.0
 11
140.0
 21
-117.5
 31
0.0
  0
LINE
  5
EB
100
AcDbEntity
  8
CLASS1
  6
CONTINUOUS
 62
     7
100
AcDbLine
 10
154.0
 20
-128.5
 30
0.0
 11
154.0
 21
-117.5
 31
0.0
  0
LINE
  5
EC
100
AcDbEntity
  8
CLASS1
  6
CONTINUOUS
 62
     7
100
AcDbLine
 10
159.0
 20
-128.5
 30
0.0
 11
159.0
 21
-117.5
 31
0.0
  0
LINE
  5
ED
100
AcDbEntity
  8
CLASS1
  6
CONTINUOUS
 62
     7
100
AcDbLine
 10
173.0
 20
-128.5
 30
0.0
 11
173.0
 21
-117.5
 31
0.0
  0
LINE
  5
EE
100
AcDbEntity
  8
CLASS1
  6
CONTINUOUS
 62
     7
100
AcDbLine
 10
178.0
 20
-128.5
 30
0.0
 11
178.0
 21
-117.5
 31
0.0
  0
LINE
  5
EF
100
AcDbEntity
  8
CLASS1
  6
CONTINUOUS
 62
     7
100
AcDbLine
 10
183.499917
 20
-116.500061
 30
0.0
 11
190.49986
 21
-109.500118
 31
0.0
  0
LINE
  5
F0
100
AcDbEntity
  8
CLASS1
  6
CONTINUOUS
 62
     7
100
AcDbLine
 10
192.0
 20
44.5
 30
0.0
 11
194.0
 21
44.5
 31
0.0
  0
LINE
  5
F1
100
AcDbEntity
  8
CLASS1
  6
CONTINUOUS
 62
     7
100
AcDbLine
 10
192.0
 20
0.0
 30
0.0
 11
194.0
 21
0.0
 31
0.0
  0
LINE
  5
F2
100
AcDbEntity
  8
CLASS1
  6
CONTINUOUS
 62
     7
100
AcDbLine
 10
192.0
 20
-44.5
 30
0.0
 11
194.0
 21
-44.5
 31
0.0
  0
LINE
  5
F3
100
AcDbEntity
  8
CLASS1
  6
CONTINUOUS
 62
     7
100
AcDbLine
 10
192.0
 20
-89.0
 30
0.0
 11
194.0
 21
-89.0
 31
0.0
  0
LINE
  5
F4
100
AcDbEntity
  8
CLASS1
  6
CONTINUOUS
 62
     7
100
AcDbLine
 10
-144.0
 20
-133.5
 30
0.0
 11
-144.0
 21
-135.5
 31
0.0
  0
LINE
  5
F5
100
AcDbEntity
  8
CLASS1
  6
CONTINUOUS
 62
     7
100
AcDbLine
 10
-96.0
 20
-133.5
 30
0.0
 11
-96.0
 21
-135.5
 31
0.0
  0
LINE
  5
F6
100
AcDbEntity
  8
CLASS1
  6
CONTINUOUS
 62
     7
100
AcDbLine
 10
-48.0
 20
-133.5
 30
0.0
 11
-48.0
 21
-135.5
 31
0.0
  0
LINE
  5
F7
100
AcDbEntity
  8
CLASS1
  6
CONTINUOUS
 62
     7
100
AcDbLine
 10
48.0
 20
-133.5
 30
0.0
 11
48.0
 21
-135.5
 31
0.0
  0
LINE
  5
F8
100
AcDbEntity
  8
CLASS1
  6
CONTINUOUS
 62
     7
100
AcDbLine
 10
96.0
 20
-133.5
 30
0.0
 11
96.0
 21
-135.5
 31
0.0
  0
LINE
  5
F9
100
AcDbEntity
  8
CLASS1
  6
CONTINUOUS
 62
     7
100
AcDbLine
 10
144.0
 20
-133.5
 30
0.0
 11
144.0
 21
-135.5
 31
0.0
  0
LINE
  5
FA
100
AcDbEntity
  8
CLASS1
  6
CONTINUOUS
 62
     7
100
AcDbLine
 10
8.0
 20
-133.5
 30
0.0
 11
-92.0
 21
-133.5
 31
0.0
  0
LINE
  5
FB
100
AcDbEntity
  8
CLASS1
  6
CONTINUOUS
 62
     7
100
AcDbLine
 10
47.0
 20
-93.5
 30
0.0
 11
47.0
 21
-133.5
 31
0.0
  0
LINE
  5
FC
100
AcDbEntity
  8
CLASS1
  6
CONTINUOUS
 62
     7
100
AcDbLine
 10
47.0
 20
-93.5
 30
0.0
 11
192.0
 21
-93.5
 31
0.0
  0
TEXT
  5
FD
100
AcDbEntity
  8
CLASS1
  6
CONTINUOUS
 62
     7
100
AcDbText
 10
47.928992
 20
-132.5
 30
0.0
 40
3.0
  1
Weight
 41
0.529412
 11
47.928992
 21
-131.0
 31
0.0
100
AcDbText
 73
     2
  0
TEXT
  5
FE
100
AcDbEntity
  8
CLASS1
  6
CONTINUOUS
 62
     7
100
AcDbText
 10
47.394898
 20
-127.5
 30
0.0
 40
3.0
  1
IP
 41
0.6
 11
47.394898
 21
-126.0
 31
0.0
100
AcDbText
 73
     2
  0
TEXT
  5
FF
100
AcDbEntity
  8
CLASS1
  6
CONTINUOUS
 62
     7
100
AcDbText
 10
47.87037
 20
-122.5
 30
0.0
 40
3.0
  1
Color
 41
0.740741
 11
47.87037
 21
-121.0
 31
0.0
100
AcDbText
 73
     2
  0
TEXT
  5
100
100
AcDbEntity
  8
CLASS1
  6
CONTINUOUS
 62
     7
100
AcDbText
 10
47.795798
 20
-116.0
 30
0.0
 40
2.0
  1
Mounting 
 41
0.737395
 11
47.795798
 21
-114.0
 31
0.0
100
AcDbText
 73
     3
  0
TEXT
  5
101
100
AcDbEntity
  8
CLASS1
  6
CONTINUOUS
 62
     7
100
AcDbText
 10
47.790741
 20
-118.0
 30
0.0
 40
2.0
  1
plate
 41
0.722222
 11
47.790741
 21
-116.0
 31
0.0
100
AcDbText
 73
     3
  0
TEXT
  5
102
100
AcDbEntity
  8
CLASS1
  6
CONTINUOUS
 62
     7
100
AcDbText
 10
47.747619
 20
-102.5
 30
0.0
 40
3.0
  1
Type
 41
0.666667
 11
47.747619
 21
-101.0
 31
0.0
100
AcDbText
 73
     2
  0
TEXT
  5
103
100
AcDbEntity
  8
CLASS1
  6
CONTINUOUS
 62
     7
100
AcDbText
 10
47.831426
 20
-97.5
 30
0.0
 40
3.0
  1
Enclosure specification
 41
0.762852
 11
47.831426
 21
-96.0
 31
0.0
100
AcDbText
 73
     2
  0
TEXT
  5
104
100
AcDbEntity
  8
CLASS1
  6
CONTINUOUS
 62
     7
100
AcDbText
 10
118.0
 20
-96.37037
 30
0.0
 40
3.0
  1
Model
 50
-90.0
 41
0.740741
 11
119.5
 21
-96.37037
 31
0.0
100
AcDbText
 73
     2
  0
TEXT
  5
105
100
AcDbEntity
  8
CLASS1
  6
CONTINUOUS
 62
     7
100
AcDbText
 10
119.5
 20
-109.652632
 30
0.0
 40
2.0
  1
Drawing
 50
-90.0
 41
0.607895
 11
121.5
 21
-109.652632
 31
0.0
100
AcDbText
 73
     3
  0
TEXT
  5
106
100
AcDbEntity
  8
CLASS1
  6
CONTINUOUS
 62
     7
100
AcDbText
 10
117.5
 20
-109.633333
 30
0.0
 40
2.0
  1
number
 50
-90.0
 41
0.55
 11
119.5
 21
-109.633333
 31
0.0
100
AcDbText
 73
     3
  0
TEXT
  5
107
100
AcDbEntity
  8
CLASS1
  6
CONTINUOUS
 62
     7
100
AcDbText
 10
136.0
 20
-118.5
 30
0.0
 40
3.0
  1
Design
 50
-90.0
 41
0.5625
 72
     1
 11
137.5
 21
-123.0
 31
0.0
100
AcDbText
 73
     2
  0
TEXT
  5
108
100
AcDbEntity
  8
CLASS1
  6
CONTINUOUS
 62
     7
100
AcDbText
 10
155.0
 20
-120.2
 30
0.0
 40
3.0
  1
Draw
 50
-90.0
 41
0.466667
 72
     1
 11
156.5
 21
-123.0
 31
0.0
100
AcDbText
 73
     2
  0
TEXT
  5
109
100
AcDbEntity
  8
CLASS1
  6
CONTINUOUS
 62
     7
100
AcDbText
 10
174.0
 20
-119.25
 30
0.0
 40
3.0
  1
Check
 50
-90.0
 41
0.5
 72
     1
 11
175.5
 21
-123.0
 31
0.0
100
AcDbText
 73
     2
  0
TEXT
  5
10A
100
AcDbEntity
  8
CLASS1
  6
CONTINUOUS
 62
     7
100
AcDbText
 10
193.5
 20
-112.75
 30
0.0
 40
3.0
  1
6
 11
193.5
 21
-111.25
 31
0.0
100
AcDbText
 73
     2
  0
TEXT
  5
10B
100
AcDbEntity
  8
CLASS1
  6
CONTINUOUS
 62
     7
100
AcDbText
 10
193.5
 20
-68.25
 30
0.0
 40
3.0
  1
5
 11
193.5
 21
-66.75
 31
0.0
100
AcDbText
 73
     2
  0
TEXT
  5
10C
100
AcDbEntity
  8
CLASS1
  6
CONTINUOUS
 62
     7
100
AcDbText
 10
193.5
 20
-23.75
 30
0.0
 40
3.0
  1
4
 11
193.5
 21
-22.25
 31
0.0
100
AcDbText
 73
     2
  0
TEXT
  5
10D
100
AcDbEntity
  8
CLASS1
  6
CONTINUOUS
 62
     7
100
AcDbText
 10
193.5
 20
20.75
 30
0.0
 40
3.0
  1
3
 11
193.5
 21
22.25
 31
0.0
100
AcDbText
 73
     2
  0
TEXT
  5
10E
100
AcDbEntity
  8
CLASS1
  6
CONTINUOUS
 62
     7
100
AcDbText
 10
193.75
 20
109.75
 30
0.0
 40
3.0
  1
1
 41
1.5
 11
193.75
 21
111.25
 31
0.0
100
AcDbText
 73
     2
  0
TEXT
  5
10F
100
AcDbEntity
  8
CLASS1
  6
CONTINUOUS
 62
     7
100
AcDbText
 10
-168.5
 20
-137.0
 30
0.0
 40
3.0
  1
A
 11
-168.5
 21
-135.5
 31
0.0
100
AcDbText
 73
     2
  0
TEXT
  5
110
100
AcDbEntity
  8
CLASS1
  6
CONTINUOUS
 62
     7
100
AcDbText
 10
-120.5
 20
-137.0
 30
0.0
 40
3.0
  1
B
 11
-120.5
 21
-135.5
 31
0.0
100
AcDbText
 73
     2
  0
TEXT
  5
111
100
AcDbEntity
  8
CLASS1
  6
CONTINUOUS
 62
     7
100
AcDbText
 10
-72.5
 20
-137.0
 30
0.0
 40
3.0
  1
C
 11
-72.5
 21
-135.5
 31
0.0
100
AcDbText
 73
     2
  0
TEXT
  5
112
100
AcDbEntity
  8
CLASS1
  6
CONTINUOUS
 62
     7
100
AcDbText
 10
-24.5
 20
-137.0
 30
0.0
 40
3.0
  1
D
 11
-24.5
 21
-135.5
 31
0.0
100
AcDbText
 73
     2
  0
TEXT
  5
113
100
AcDbEntity
  8
CLASS1
  6
CONTINUOUS
 62
     7
100
AcDbText
 10
23.5
 20
-137.0
 30
0.0
 40
3.0
  1
E
 11
23.5
 21
-135.5
 31
0.0
100
AcDbText
 73
     2
  0
TEXT
  5
114
100
AcDbEntity
  8
CLASS1
  6
CONTINUOUS
 62
     7
100
AcDbText
 10
71.5
 20
-137.0
 30
0.0
 40
3.0
  1
F
 11
71.5
 21
-135.5
 31
0.0
100
AcDbText
 73
     2
  0
TEXT
  5
115
100
AcDbEntity
  8
CLASS1
  6
CONTINUOUS
 62
     7
100
AcDbText
 10
119.5
 20
-137.0
 30
0.0
 40
3.0
  1
G
 11
119.5
 21
-135.5
 31
0.0
100
AcDbText
 73
     2
  0
TEXT
  5
116
100
AcDbEntity
  8
CLASS1
  6
CONTINUOUS
 62
     7
100
AcDbText
 10
167.5
 20
-137.0
 30
0.0
 40
3.0
  1
H
 11
167.5
 21
-135.5
 31
0.0
100
AcDbText
 73
     2
  0
TEXT
  5
117
100
AcDbEntity
  8
CLASS1
  6
CONTINUOUS
 62
     7
100
AcDbText
 10
118.0
 20
-118.625352
 30
0.0
 40
3.0
  1
A3 scale
 50
-90.0
 41
0.450704
 11
119.5
 21
-118.625352
 31
0.0
100
AcDbText
 73
     2
  0
INSERT
  5
132
100
AcDbEntity
  8
CLASS1
  6
ByBlock
 62
     7
100
AcDbBlockReference
  2
*X1
 10
0.0
 20
0.0
 30
0.0
  0
CIRCLE
  5
133
100
AcDbEntity
  8
CLASS1
  6
CONTINUOUS
 62
     7
100
AcDbCircle
 10
125.878443
 20
-136.254646
 30
0.0
 40
1.1444
  0
CIRCLE
  5
134
100
AcDbEntity
  8
CLASS1
  6
CONTINUOUS
 62
     7
100
AcDbCircle
 10
131.418847
 20
-139.692819
 30
0.0
 40
0.764082
  0
LINE
  5
135
100
AcDbEntity
  8
CLASS1
  6
CONTINUOUS
 62
     7
100
AcDbLine
 10
123.160897
 20
-137.166083
 30
0.0
 11
125.305383
 21
-139.310778
 31
0.0
  0
ARC
  5
136
100
AcDbEntity
  8
CLASS1
  6
CONTINUOUS
 62
     7
100
AcDbCircle
 10
122.625023
 20
-137.701905
 30
0.0
 40
0.757804
100
AcDbArc
 50
44.997197
 51
179.994961
  0
LINE
  5
137
100
AcDbEntity
  8
CLASS1
  6
CONTINUOUS
 62
     7
100
AcDbLine
 10
121.866876
 20
-141.602894
 30
0.0
 11
121.867219
 21
-137.701838
 31
0.0
  0
LINE
  5
138
100
AcDbEntity
  8
CLASS1
  6
CONTINUOUS
 62
     7
100
AcDbLine
 10
123.013331
 20
-141.602894
 30
0.0
 11
121.866876
 21
-141.602894
 31
0.0
  0
LINE
  5
139
100
AcDbEntity
  8
CLASS1
  6
CONTINUOUS
 62
     7
100
AcDbLine
 10
123.013331
 20
-141.602894
 30
0.0
 11
123.013331
 21
-139.310777
 31
0.0
  0
LINE
  5
13A
100
AcDbEntity
  8
CLASS1
  6
CONTINUOUS
 62
     7
100
AcDbLine
 10
125.305383
 20
-141.602894
 30
0.0
 11
123.013331
 21
-139.310777
 31
0.0
  0
LINE
  5
13B
100
AcDbEntity
  8
CLASS1
  6
CONTINUOUS
 62
     7
100
AcDbLine
 10
125.305383
 20
-141.602894
 30
0.0
 11
126.45144
 21
-141.602894
 31
0.0
  0
LINE
  5
13C
100
AcDbEntity
  8
CLASS1
  6
CONTINUOUS
 62
     7
100
AcDbLine
 10
126.45144
 20
-138.928738
 30
0.0
 11
126.45144
 21
-141.602894
 31
0.0
  0
LINE
  5
13D
100
AcDbEntity
  8
CLASS1
  6
CONTINUOUS
 62
     7
100
AcDbLine
 10
126.45144
 20
-138.928738
 30
0.0
 11
127.444767
 21
-138.928738
 31
0.0
  0
LINE
  5
13E
100
AcDbEntity
  8
CLASS1
  6
CONTINUOUS
 62
     7
100
AcDbLine
 10
127.444767
 20
-141.602894
 30
0.0
 11
127.444767
 21
-138.928738
 31
0.0
  0
LINE
  5
13F
100
AcDbEntity
  8
CLASS1
  6
CONTINUOUS
 62
     7
100
AcDbLine
 10
127.444767
 20
-141.602894
 30
0.0
 11
128.590762
 21
-141.602894
 31
0.0
  0
LINE
  5
140
100
AcDbEntity
  8
CLASS1
  6
CONTINUOUS
 62
     7
100
AcDbLine
 10
128.590762
 20
-138.928738
 30
0.0
 11
128.590762
 21
-141.602894
 31
0.0
  0
LINE
  5
141
100
AcDbEntity
  8
CLASS1
  6
CONTINUOUS
 62
     7
100
AcDbLine
 10
129.668636
 20
-138.928738
 30
0.0
 11
128.590762
 21
-138.928738
 31
0.0
  0
ARC
  5
142
100
AcDbEntity
  8
CLASS1
  6
CONTINUOUS
 62
     7
100
AcDbCircle
 10
131.418847
 20
-139.692819
 30
0.0
 40
1.909727
100
AcDbArc
 50
156.41561
 51
90.0
  0
LINE
  5
143
100
AcDbEntity
  8
CLASS1
  6
CONTINUOUS
 62
     7
100
AcDbLine
 10
131.418847
 20
-137.783091
 30
0.0
 11
125.305383
 21
-137.783091
 31
0.0
  0
LINE
  5
144
100
AcDbEntity
  8
CLASS1
  6
CONTINUOUS
 62
     7
100
AcDbLine
 10
125.305383
 20
-139.310778
 30
0.0
 11
125.305383
 21
-137.783091
 31
0.0
  0
POLYLINE
  5
145
100
AcDbEntity
  8
CLASS1
  6
CONTINUOUS
 62
     7
100
AcDb2dPolyline
 66
     1
 10
0.0
 20
0.0
 30
0.0
 70
     1
  0
VERTEX
  5
849
100
AcDbEntity
  8
CLASS1
  6
CONTINUOUS
 62
     7
100
AcDbVertex
100
AcDb2dVertex
 10
151.201594
 20
-138.657006
 30
0.0
  0
VERTEX
  5
84A
100
AcDbEntity
  8
CLASS1
  6
CONTINUOUS
 62
     7
100
AcDbVertex
100
AcDb2dVertex
 10
151.057897
 20
-139.016427
 30
0.0
  0
VERTEX
  5
84B
100
AcDbEntity
  8
CLASS1
  6
CONTINUOUS
 62
     7
100
AcDbVertex
100
AcDb2dVertex
 10
150.417926
 20
-139.016427
 30
0.0
  0
VERTEX
  5
84C
100
AcDbEntity
  8
CLASS1
  6
CONTINUOUS
 62
     7
100
AcDbVertex
100
AcDb2dVertex
 10
150.29562
 20
-138.657006
 30
0.0
  0
SEQEND
  5
84D
100
AcDbEntity
  8
CLASS1
  6
CONTINUOUS
 62
     7
  0
LINE
  5
146
100
AcDbEntity
  8
CLASS1
  6
CONTINUOUS
 62
     7
100
AcDbLine
 10
134.859955
 20
-141.245924
 30
0.0
 11
134.859955
 21
-138.084809
 31
0.0
  0
LINE
  5
147
100
AcDbEntity
  8
CLASS1
  6
CONTINUOUS
 62
     7
100
AcDbLine
 10
138.602961
 20
-141.245924
 30
0.0
 11
138.602961
 21
-138.084809
 31
0.0
  0
LINE
  5
148
100
AcDbEntity
  8
CLASS1
  6
CONTINUOUS
 62
     7
100
AcDbLine
 10
135.259955
 20
-137.684809
 30
0.0
 11
138.202961
 21
-137.684809
 31
0.0
  0
LINE
  5
149
100
AcDbEntity
  8
CLASS1
  6
CONTINUOUS
 62
     7
100
AcDbLine
 10
135.259955
 20
-141.645924
 30
0.0
 11
138.202961
 21
-141.645924
 31
0.0
  0
ARC
  5
14A
100
AcDbEntity
  8
CLASS1
  6
CONTINUOUS
 62
     7
100
AcDbCircle
 10
135.259955
 20
-138.084809
 30
0.0
 40
0.4
100
AcDbArc
 50
90.0
 51
180.0
  0
ARC
  5
14B
100
AcDbEntity
  8
CLASS1
  6
CONTINUOUS
 62
     7
100
AcDbCircle
 10
138.202961
 20
-138.084809
 30
0.0
 40
0.4
100
AcDbArc
 50
0.0
 51
90.0
  0
ARC
  5
14C
100
AcDbEntity
  8
CLASS1
  6
CONTINUOUS
 62
     7
100
AcDbCircle
 10
138.202961
 20
-141.245924
 30
0.0
 40
0.4
100
AcDbArc
 50
270.0
 51
0.0
  0
ARC
  5
14D
100
AcDbEntity
  8
CLASS1
  6
CONTINUOUS
 62
     7
100
AcDbCircle
 10
135.259955
 20
-141.245924
 30
0.0
 40
0.4
100
AcDbArc
 50
180.0
 51
270.0
  0
LINE
  5
14E
100
AcDbEntity
  8
CLASS1
  6
CONTINUOUS
 62
     7
100
AcDbLine
 10
135.631889
 20
-138.16851
 30
0.0
 11
137.824149
 21
-138.16851
 31
0.0
  0
LINE
  5
14F
100
AcDbEntity
  8
CLASS1
  6
CONTINUOUS
 62
     7
100
AcDbLine
 10
135.531889
 20
-139.343582
 30
0.0
 11
137.924149
 21
-139.343582
 31
0.0
  0
LINE
  5
150
100
AcDbEntity
  8
CLASS1
  6
CONTINUOUS
 62
     7
100
AcDbLine
 10
135.531889
 20
-139.343582
 30
0.0
 11
135.531889
 21
-138.26851
 31
0.0
  0
LINE
  5
151
100
AcDbEntity
  8
CLASS1
  6
CONTINUOUS
 62
     7
100
AcDbLine
 10
137.924149
 20
-139.343582
 30
0.0
 11
137.924149
 21
-138.26851
 31
0.0
  0
ARC
  5
152
100
AcDbEntity
  8
CLASS1
  6
CONTINUOUS
 62
     7
100
AcDbCircle
 10
135.631889
 20
-138.26851
 30
0.0
 40
0.1
100
AcDbArc
 50
90.0
 51
180.0
  0
ARC
  5
153
100
AcDbEntity
  8
CLASS1
  6
CONTINUOUS
 62
     7
100
AcDbCircle
 10
137.824149
 20
-138.26851
 30
0.0
 40
0.1
100
AcDbArc
 50
0.0
 51
90.0
  0
LINE
  5
154
100
AcDbEntity
  8
CLASS1
  6
CONTINUOUS
 62
     7
100
AcDbLine
 10
135.531889
 20
-139.853589
 30
0.0
 11
137.924149
 21
-139.853589
 31
0.0
  0
LINE
  5
155
100
AcDbEntity
  8
CLASS1
  6
CONTINUOUS
 62
     7
100
AcDbLine
 10
135.631889
 20
-141.153923
 30
0.0
 11
137.824149
 21
-141.153923
 31
0.0
  0
LINE
  5
156
100
AcDbEntity
  8
CLASS1
  6
CONTINUOUS
 62
     7
100
AcDbLine
 10
135.531889
 20
-141.053923
 30
0.0
 11
135.531889
 21
-139.853589
 31
0.0
  0
LINE
  5
157
100
AcDbEntity
  8
CLASS1
  6
CONTINUOUS
 62
     7
100
AcDbLine
 10
137.924149
 20
-141.053923
 30
0.0
 11
137.924149
 21
-139.853589
 31
0.0
  0
ARC
  5
158
100
AcDbEntity
  8
CLASS1
  6
CONTINUOUS
 62
     7
100
AcDbCircle
 10
135.631889
 20
-141.053923
 30
0.0
 40
0.1
100
AcDbArc
 50
180.0
 51
270.0
  0
ARC
  5
159
100
AcDbEntity
  8
CLASS1
  6
CONTINUOUS
 62
     7
100
AcDbCircle
 10
137.824149
 20
-141.053923
 30
0.0
 40
0.1
100
AcDbArc
 50
270.0
 51
0.0
  0
LINE
  5
15A
100
AcDbEntity
  8
CLASS1
  6
CONTINUOUS
 62
     7
100
AcDbLine
 10
139.976121
 20
-138.998799
 30
0.0
 11
140.936676
 21
-138.998799
 31
0.0
  0
LINE
  5
15B
100
AcDbEntity
  8
CLASS1
  6
CONTINUOUS
 62
     7
100
AcDbLine
 10
139.976121
 20
-139.274861
 30
0.0
 11
140.936676
 21
-139.274861
 31
0.0
  0
LINE
  5
15C
100
AcDbEntity
  8
CLASS1
  6
CONTINUOUS
 62
     7
100
AcDbLine
 10
139.976121
 20
-139.274861
 30
0.0
 11
139.976121
 21
-138.998799
 31
0.0
  0
LINE
  5
15D
100
AcDbEntity
  8
CLASS1
  6
CONTINUOUS
 62
     7
100
AcDbLine
 10
140.936676
 20
-139.274861
 30
0.0
 11
140.936676
 21
-138.998799
 31
0.0
  0
LINE
  5
15E
100
AcDbEntity
  8
CLASS1
  6
CONTINUOUS
 62
     7
100
AcDbLine
 10
139.976121
 20
-139.643555
 30
0.0
 11
140.936676
 21
-139.643555
 31
0.0
  0
LINE
  5
15F
100
AcDbEntity
  8
CLASS1
  6
CONTINUOUS
 62
     7
100
AcDbLine
 10
139.976121
 20
-139.934555
 30
0.0
 11
140.936676
 21
-139.934555
 31
0.0
  0
LINE
  5
160
100
AcDbEntity
  8
CLASS1
  6
CONTINUOUS
 62
     7
100
AcDbLine
 10
141.600539
 20
-138.998799
 30
0.0
 11
142.580817
 21
-138.998799
 31
0.0
  0
LINE
  5
161
100
AcDbEntity
  8
CLASS1
  6
CONTINUOUS
 62
     7
100
AcDbLine
 10
141.600539
 20
-139.274861
 30
0.0
 11
142.580817
 21
-139.274861
 31
0.0
  0
LINE
  5
162
100
AcDbEntity
  8
CLASS1
  6
CONTINUOUS
 62
     7
100
AcDbLine
 10
139.976121
 20
-139.934555
 30
0.0
 11
139.976121
 21
-139.643555
 31
0.0
  0
LINE
  5
163
100
AcDbEntity
  8
CLASS1
  6
CONTINUOUS
 62
     7
100
AcDbLine
 10
140.936676
 20
-139.934555
 30
0.0
 11
140.936676
 21
-139.643555
 31
0.0
  0
LINE
  5
164
100
AcDbEntity
  8
CLASS1
  6
CONTINUOUS
 62
     7
100
AcDbLine
 10
141.600539
 20
-139.274861
 30
0.0
 11
141.600539
 21
-138.998799
 31
0.0
  0
LINE
  5
165
100
AcDbEntity
  8
CLASS1
  6
CONTINUOUS
 62
     7
100
AcDbLine
 10
142.580817
 20
-139.274861
 30
0.0
 11
142.580817
 21
-138.998799
 31
0.0
  0
LINE
  5
166
100
AcDbEntity
  8
CLASS1
  6
CONTINUOUS
 62
     7
100
AcDbLine
 10
142.580817
 20
-139.934555
 30
0.0
 11
142.580817
 21
-139.643555
 31
0.0
  0
LINE
  5
167
100
AcDbEntity
  8
CLASS1
  6
CONTINUOUS
 62
     7
100
AcDbLine
 10
141.600539
 20
-139.934555
 30
0.0
 11
141.600539
 21
-139.643555
 31
0.0
  0
LINE
  5
168
100
AcDbEntity
  8
CLASS1
  6
CONTINUOUS
 62
     7
100
AcDbLine
 10
141.600539
 20
-139.643555
 30
0.0
 11
142.580817
 21
-139.643555
 31
0.0
  0
LINE
  5
169
100
AcDbEntity
  8
CLASS1
  6
CONTINUOUS
 62
     7
100
AcDbLine
 10
141.600539
 20
-139.934555
 30
0.0
 11
142.580817
 21
-139.934555
 31
0.0
  0
LINE
  5
16A
100
AcDbEntity
  8
CLASS1
  6
CONTINUOUS
 62
     7
100
AcDbLine
 10
139.328759
 20
-137.819845
 30
0.0
 11
140.936676
 21
-137.819845
 31
0.0
  0
LINE
  5
16B
100
AcDbEntity
  8
CLASS1
  6
CONTINUOUS
 62
     7
100
AcDbLine
 10
139.328759
 20
-138.28115
 30
0.0
 11
140.936676
 21
-138.28115
 31
0.0
  0
LINE
  5
16C
100
AcDbEntity
  8
CLASS1
  6
CONTINUOUS
 62
     7
100
AcDbLine
 10
141.196676
 20
-137.466397
 30
0.0
 11
141.340539
 21
-137.466397
 31
0.0
  0
LINE
  5
16D
100
AcDbEntity
  8
CLASS1
  6
CONTINUOUS
 62
     7
100
AcDbLine
 10
139.098759
 20
-138.05115
 30
0.0
 11
139.098759
 21
-138.049845
 31
0.0
  0
LINE
  5
16E
100
AcDbEntity
  8
CLASS1
  6
CONTINUOUS
 62
     7
100
AcDbLine
 10
143.420474
 20
-138.05115
 30
0.0
 11
143.420474
 21
-138.049845
 31
0.0
  0
ARC
  5
16F
100
AcDbEntity
  8
CLASS1
  6
CONTINUOUS
 62
     7
100
AcDbCircle
 10
141.196676
 20
-137.726397
 30
0.0
 40
0.26
100
AcDbArc
 50
90.0
 51
180.037908
  0
ARC
  5
170
100
AcDbEntity
  8
CLASS1
  6
CONTINUOUS
 62
     7
100
AcDbCircle
 10
141.340539
 20
-137.726397
 30
0.0
 40
0.26
100
AcDbArc
 50
0.0
 51
90.0
  0
ARC
  5
171
100
AcDbEntity
  8
CLASS1
  6
CONTINUOUS
 62
     7
100
AcDbCircle
 10
139.328759
 20
-138.049845
 30
0.0
 40
0.23
100
AcDbArc
 50
90.0
 51
180.0
  0
ARC
  5
172
100
AcDbEntity
  8
CLASS1
  6
CONTINUOUS
 62
     7
100
AcDbCircle
 10
139.328759
 20
-138.05115
 30
0.0
 40
0.23
100
AcDbArc
 50
180.0
 51
270.0
  0
ARC
  5
173
100
AcDbEntity
  8
CLASS1
  6
CONTINUOUS
 62
     7
100
AcDbCircle
 10
143.190474
 20
-138.049845
 30
0.0
 40
0.23
100
AcDbArc
 50
0.0
 51
90.0
  0
ARC
  5
174
100
AcDbEntity
  8
CLASS1
  6
CONTINUOUS
 62
     7
100
AcDbCircle
 10
143.190474
 20
-138.05115
 30
0.0
 40
0.23
100
AcDbArc
 50
270.0
 51
0.0
  0
LINE
  5
175
100
AcDbEntity
  8
CLASS1
  6
CONTINUOUS
 62
     7
100
AcDbLine
 10
141.600539
 20
-137.819845
 30
0.0
 11
143.190474
 21
-137.819845
 31
0.0
  0
LINE
  5
176
100
AcDbEntity
  8
CLASS1
  6
CONTINUOUS
 62
     7
100
AcDbLine
 10
141.600539
 20
-138.28115
 30
0.0
 11
143.190474
 21
-138.28115
 31
0.0
  0
LINE
  5
177
100
AcDbEntity
  8
CLASS1
  6
CONTINUOUS
 62
     7
100
AcDbLine
 10
140.936676
 20
-137.819844
 30
0.0
 11
140.936676
 21
-137.726569
 31
0.0
  0
LINE
  5
178
100
AcDbEntity
  8
CLASS1
  6
CONTINUOUS
 62
     7
100
AcDbLine
 10
141.600539
 20
-137.819844
 30
0.0
 11
141.600539
 21
-137.726397
 31
0.0
  0
LINE
  5
179
100
AcDbEntity
  8
CLASS1
  6
CONTINUOUS
 62
     7
100
AcDbLine
 10
140.936676
 20
-138.281151
 30
0.0
 11
140.936676
 21
-138.566776
 31
0.0
  0
LINE
  5
17A
100
AcDbEntity
  8
CLASS1
  6
CONTINUOUS
 62
     7
100
AcDbLine
 10
141.600539
 20
-138.28115
 30
0.0
 11
141.600539
 21
-138.566776
 31
0.0
  0
LINE
  5
17B
100
AcDbEntity
  8
CLASS1
  6
CONTINUOUS
 62
     7
100
AcDbLine
 10
140.936677
 20
-141.543075
 30
0.0
 11
140.936677
 21
-140.697026
 31
0.0
  0
LINE
  5
17C
100
AcDbEntity
  8
CLASS1
  6
CONTINUOUS
 62
     7
100
AcDbLine
 10
141.600543
 20
-141.543075
 30
0.0
 11
141.600543
 21
-140.691048
 31
0.0
  0
LINE
  5
17D
100
AcDbEntity
  8
CLASS1
  6
CONTINUOUS
 62
     7
100
AcDbLine
 10
141.196677
 20
-141.803075
 30
0.0
 11
141.340543
 21
-141.803075
 31
0.0
  0
ARC
  5
17E
100
AcDbEntity
  8
CLASS1
  6
CONTINUOUS
 62
     7
100
AcDbCircle
 10
141.196677
 20
-141.543075
 30
0.0
 40
0.26
100
AcDbArc
 50
180.0
 51
270.0
  0
ARC
  5
17F
100
AcDbEntity
  8
CLASS1
  6
CONTINUOUS
 62
     7
100
AcDbCircle
 10
141.340543
 20
-141.543075
 30
0.0
 40
0.26
100
AcDbArc
 50
270.0
 51
0.0
  0
LINE
  5
180
100
AcDbEntity
  8
CLASS1
  6
CONTINUOUS
 62
     7
100
AcDbLine
 10
139.631506
 20
-140.366584
 30
0.0
 11
140.51511
 21
-140.366584
 31
0.0
  0
LINE
  5
181
100
AcDbEntity
  8
CLASS1
  6
CONTINUOUS
 62
     7
100
AcDbLine
 10
139.321506
 20
-140.056584
 30
0.0
 11
139.321506
 21
-138.876779
 31
0.0
  0
LINE
  5
182
100
AcDbEntity
  8
CLASS1
  6
CONTINUOUS
 62
     7
100
AcDbLine
 10
139.631506
 20
-138.566779
 30
0.0
 11
140.936676
 21
-138.566779
 31
0.0
  0
LINE
  5
183
100
AcDbEntity
  8
CLASS1
  6
CONTINUOUS
 62
     7
100
AcDbLine
 10
143.235433
 20
-140.056584
 30
0.0
 11
143.235433
 21
-138.876779
 31
0.0
  0
ARC
  5
184
100
AcDbEntity
  8
CLASS1
  6
CONTINUOUS
 62
     7
100
AcDbCircle
 10
142.925433
 20
-138.876779
 30
0.0
 40
0.31
100
AcDbArc
 50
0.0
 51
90.0
  0
ARC
  5
185
100
AcDbEntity
  8
CLASS1
  6
CONTINUOUS
 62
     7
100
AcDbCircle
 10
142.925433
 20
-140.056584
 30
0.0
 40
0.31
100
AcDbArc
 50
270.0
 51
0.0
  0
ARC
  5
186
100
AcDbEntity
  8
CLASS1
  6
CONTINUOUS
 62
     7
100
AcDbCircle
 10
139.631506
 20
-138.876779
 30
0.0
 40
0.31
100
AcDbArc
 50
90.0
 51
180.0
  0
ARC
  5
187
100
AcDbEntity
  8
CLASS1
  6
CONTINUOUS
 62
     7
100
AcDbCircle
 10
139.631506
 20
-140.056584
 30
0.0
 40
0.31
100
AcDbArc
 50
180.0
 51
270.0
  0
LINE
  5
188
100
AcDbEntity
  8
CLASS1
  6
CONTINUOUS
 62
     7
100
AcDbLine
 10
140.515104
 20
-140.366584
 30
0.0
 11
139.933974
 21
-140.772142
 31
0.0
  0
LINE
  5
189
100
AcDbEntity
  8
CLASS1
  6
CONTINUOUS
 62
     7
100
AcDbLine
 10
139.933974
 20
-140.772142
 30
0.0
 11
139.271383
 21
-141.086626
 31
0.0
  0
LINE
  5
18A
100
AcDbEntity
  8
CLASS1
  6
CONTINUOUS
 62
     7
100
AcDbLine
 10
140.936677
 20
-140.697026
 30
0.0
 11
140.261129
 21
-141.221681
 31
0.0
  0
LINE
  5
18B
100
AcDbEntity
  8
CLASS1
  6
CONTINUOUS
 62
     7
100
AcDbLine
 10
140.261129
 20
-141.221681
 30
0.0
 11
139.52129
 21
-141.596396
 31
0.0
  0
LINE
  5
18C
100
AcDbEntity
  8
CLASS1
  6
CONTINUOUS
 62
     7
100
AcDbLine
 10
141.963868
 20
-140.366584
 30
0.0
 11
142.925433
 21
-140.366584
 31
0.0
  0
LINE
  5
18D
100
AcDbEntity
  8
CLASS1
  6
CONTINUOUS
 62
     7
100
AcDbLine
 10
139.141823
 20
-141.466666
 30
0.0
 11
139.138487
 21
-141.459639
 31
0.0
  0
ARC
  5
18E
100
AcDbEntity
  8
CLASS1
  6
CONTINUOUS
 62
     7
100
AcDbCircle
 10
139.391442
 20
-141.33958
 30
0.0
 40
0.28
100
AcDbArc
 50
115.39028
 51
205.390285
  0
ARC
  5
18F
100
AcDbEntity
  8
CLASS1
  6
CONTINUOUS
 62
     7
100
AcDbCircle
 10
139.394777
 20
-141.346607
 30
0.0
 40
0.28
100
AcDbArc
 50
205.390279
 51
296.86136
  0
LINE
  5
190
100
AcDbEntity
  8
CLASS1
  6
CONTINUOUS
 62
     7
100
AcDbLine
 10
141.963868
 20
-140.366584
 30
0.0
 11
142.580305
 21
-140.767922
 31
0.0
  0
LINE
  5
191
100
AcDbEntity
  8
CLASS1
  6
CONTINUOUS
 62
     7
100
AcDbLine
 10
142.580305
 20
-140.767922
 30
0.0
 11
143.266654
 21
-141.088504
 31
0.0
  0
LINE
  5
192
100
AcDbEntity
  8
CLASS1
  6
CONTINUOUS
 62
     7
100
AcDbLine
 10
141.600543
 20
-140.691048
 30
0.0
 11
142.276866
 21
-141.220229
 31
0.0
  0
LINE
  5
193
100
AcDbEntity
  8
CLASS1
  6
CONTINUOUS
 62
     7
100
AcDbLine
 10
142.276866
 20
-141.220229
 30
0.0
 11
143.019871
 21
-141.597382
 31
0.0
  0
ARC
  5
194
100
AcDbEntity
  8
CLASS1
  6
CONTINUOUS
 62
     7
100
AcDbCircle
 10
143.146608
 20
-141.347706
 30
0.0
 40
0.28
100
AcDbArc
 50
243.087437
 51
344.866343
  0
ARC
  5
195
100
AcDbEntity
  8
CLASS1
  6
CONTINUOUS
 62
     7
100
AcDbCircle
 10
143.148159
 20
-141.342195
 30
0.0
 40
0.28
100
AcDbArc
 50
343.694736
 51
64.963479
  0
LINE
  5
196
100
AcDbEntity
  8
CLASS1
  6
CONTINUOUS
 62
     7
100
AcDbLine
 10
141.600539
 20
-138.566779
 30
0.0
 11
142.925433
 21
-138.566779
 31
0.0
  0
LINE
  5
197
100
AcDbEntity
  8
CLASS1
  6
CONTINUOUS
 62
     7
100
AcDbLine
 10
144.19376
 20
-137.726926
 30
0.0
 11
147.684381
 21
-137.726926
 31
0.0
  0
LINE
  5
198
100
AcDbEntity
  8
CLASS1
  6
CONTINUOUS
 62
     7
100
AcDbLine
 10
143.97376
 20
-138.021712
 30
0.0
 11
143.97376
 21
-137.946926
 31
0.0
  0
LINE
  5
199
100
AcDbEntity
  8
CLASS1
  6
CONTINUOUS
 62
     7
100
AcDbLine
 10
147.904381
 20
-138.021712
 30
0.0
 11
147.904381
 21
-137.946926
 31
0.0
  0
LINE
  5
19A
100
AcDbEntity
  8
CLASS1
  6
CONTINUOUS
 62
     7
100
AcDbLine
 10
148.100901
 20
-141.38708
 30
0.0
 11
148.100901
 21
-141.311996
 31
0.0
  0
ARC
  5
19B
100
AcDbEntity
  8
CLASS1
  6
CONTINUOUS
 62
     7
100
AcDbCircle
 10
144.19376
 20
-137.946926
 30
0.0
 40
0.22
100
AcDbArc
 50
90.0
 51
180.0
  0
LINE
  5
19C
100
AcDbEntity
  8
CLASS1
  6
CONTINUOUS
 62
     7
100
AcDbLine
 10
144.19376
 20
-138.241712
 30
0.0
 11
145.594232
 21
-138.241712
 31
0.0
  0
ARC
  5
19D
100
AcDbEntity
  8
CLASS1
  6
CONTINUOUS
 62
     7
100
AcDbCircle
 10
144.19376
 20
-138.021712
 30
0.0
 40
0.22
100
AcDbArc
 50
180.0
 51
270.0
  0
ARC
  5
19E
100
AcDbEntity
  8
CLASS1
  6
CONTINUOUS
 62
     7
100
AcDbCircle
 10
147.684381
 20
-137.946926
 30
0.0
 40
0.22
100
AcDbArc
 50
0.0
 51
90.0
  0
ARC
  5
19F
100
AcDbEntity
  8
CLASS1
  6
CONTINUOUS
 62
     7
100
AcDbCircle
 10
147.684381
 20
-138.021712
 30
0.0
 40
0.22
100
AcDbArc
 50
270.0
 51
0.0
  0
LINE
  5
1A0
100
AcDbEntity
  8
CLASS1
  6
CONTINUOUS
 62
     7
100
AcDbLine
 10
143.777875
 20
-141.38708
 30
0.0
 11
143.777875
 21
-141.311996
 31
0.0
  0
LINE
  5
1A1
100
AcDbEntity
  8
CLASS1
  6
CONTINUOUS
 62
     7
100
AcDbLine
 10
143.997875
 20
-141.091996
 30
0.0
 11
145.594232
 21
-141.091996
 31
0.0
  0
LINE
  5
1A2
100
AcDbEntity
  8
CLASS1
  6
CONTINUOUS
 62
     7
100
AcDbLine
 10
143.997875
 20
-141.60708
 30
0.0
 11
147.880901
 21
-141.60708
 31
0.0
  0
ARC
  5
1A3
100
AcDbEntity
  8
CLASS1
  6
CONTINUOUS
 62
     7
100
AcDbCircle
 10
143.997875
 20
-141.311996
 30
0.0
 40
0.22
100
AcDbArc
 50
90.0
 51
180.0
  0
ARC
  5
1A4
100
AcDbEntity
  8
CLASS1
  6
CONTINUOUS
 62
     7
100
AcDbCircle
 10
143.997875
 20
-141.38708
 30
0.0
 40
0.22
100
AcDbArc
 50
180.0
 51
270.0
  0
ARC
  5
1A5
100
AcDbEntity
  8
CLASS1
  6
CONTINUOUS
 62
     7
100
AcDbCircle
 10
147.880901
 20
-141.311996
 30
0.0
 40
0.22
100
AcDbArc
 50
0.0
 51
90.0
  0
ARC
  5
1A6
100
AcDbEntity
  8
CLASS1
  6
CONTINUOUS
 62
     7
100
AcDbCircle
 10
147.880901
 20
-141.38708
 30
0.0
 40
0.22
100
AcDbArc
 50
270.0
 51
0.0
  0
LINE
  5
1A7
100
AcDbEntity
  8
CLASS1
  6
CONTINUOUS
 62
     7
100
AcDbLine
 10
145.594232
 20
-138.241706
 30
0.0
 11
145.594232
 21
-141.091996
 31
0.0
  0
LINE
  5
1A8
100
AcDbEntity
  8
CLASS1
  6
CONTINUOUS
 62
     7
100
AcDbLine
 10
146.344455
 20
-138.241706
 30
0.0
 11
146.344455
 21
-141.092001
 31
0.0
  0
LINE
  5
1A9
100
AcDbEntity
  8
CLASS1
  6
CONTINUOUS
 62
     7
100
AcDbLine
 10
146.344455
 20
-138.241712
 30
0.0
 11
147.684381
 21
-138.241712
 31
0.0
  0
LINE
  5
1AA
100
AcDbEntity
  8
CLASS1
  6
CONTINUOUS
 62
     7
100
AcDbLine
 10
146.344455
 20
-141.091996
 30
0.0
 11
147.880901
 21
-141.091996
 31
0.0
  0
LINE
  5
1AB
100
AcDbEntity
  8
CLASS1
  6
CONTINUOUS
 62
     7
100
AcDbLine
 10
148.755586
 20
-138.220194
 30
0.0
 11
149.14123
 21
-138.220194
 31
0.0
  0
LINE
  5
1AC
100
AcDbEntity
  8
CLASS1
  6
CONTINUOUS
 62
     7
100
AcDbLine
 10
148.755586
 20
-138.657006
 30
0.0
 11
149.618579
 21
-138.657006
 31
0.0
  0
LINE
  5
1AD
100
AcDbEntity
  8
CLASS1
  6
CONTINUOUS
 62
     7
100
AcDbLine
 10
148.929077
 20
-139.016427
 30
0.0
 11
149.757634
 21
-139.016427
 31
0.0
  0
LINE
  5
1AE
100
AcDbEntity
  8
CLASS1
  6
CONTINUOUS
 62
     7
100
AcDbLine
 10
148.929077
 20
-139.428736
 30
0.0
 11
150.389231
 21
-139.428736
 31
0.0
  0
LINE
  5
1AF
100
AcDbEntity
  8
CLASS1
  6
CONTINUOUS
 62
     7
100
AcDbLine
 10
149.033092
 20
-139.705098
 30
0.0
 11
150.389231
 21
-139.705098
 31
0.0
  0
LINE
  5
1B0
100
AcDbEntity
  8
CLASS1
  6
CONTINUOUS
 62
     7
100
AcDbLine
 10
149.033092
 20
-140.083046
 30
0.0
 11
150.389231
 21
-140.083046
 31
0.0
  0
LINE
  5
1B1
100
AcDbEntity
  8
CLASS1
  6
CONTINUOUS
 62
     7
100
AcDbLine
 10
148.765379
 20
-140.369269
 30
0.0
 11
150.389231
 21
-140.369269
 31
0.0
  0
LINE
  5
1B2
100
AcDbEntity
  8
CLASS1
  6
CONTINUOUS
 62
     7
100
AcDbLine
 10
148.765379
 20
-140.772013
 30
0.0
 11
150.001425
 21
-140.772013
 31
0.0
  0
LINE
  5
1B3
100
AcDbEntity
  8
CLASS1
  6
CONTINUOUS
 62
     7
100
AcDbLine
 10
148.540586
 20
-138.442006
 30
0.0
 11
148.540586
 21
-138.435194
 31
0.0
  0
LINE
  5
1B4
100
AcDbEntity
  8
CLASS1
  6
CONTINUOUS
 62
     7
100
AcDbLine
 10
148.724077
 20
-139.223736
 30
0.0
 11
148.724077
 21
-139.221428
 31
0.0
  0
LINE
  5
1B5
100
AcDbEntity
  8
CLASS1
  6
CONTINUOUS
 62
     7
100
AcDbLine
 10
152.879466
 20
-138.442006
 30
0.0
 11
152.879466
 21
-138.435194
 31
0.0
  0
LINE
  5
1B6
100
AcDbEntity
  8
CLASS1
  6
CONTINUOUS
 62
     7
100
AcDbLine
 10
152.571997
 20
-139.893046
 30
0.0
 11
152.571997
 21
-139.895098
 31
0.0
  0
ARC
  5
1B7
100
AcDbEntity
  8
CLASS1
  6
CONTINUOUS
 62
     7
100
AcDbCircle
 10
148.755586
 20
-138.435194
 30
0.0
 40
0.215
100
AcDbArc
 50
90.0
 51
180.0
  0
ARC
  5
1B8
100
AcDbEntity
  8
CLASS1
  6
CONTINUOUS
 62
     7
100
AcDbCircle
 10
148.755586
 20
-138.442006
 30
0.0
 40
0.215
100
AcDbArc
 50
180.0
 51
270.0
  0
ARC
  5
1B9
100
AcDbEntity
  8
CLASS1
  6
CONTINUOUS
 62
     7
100
AcDbCircle
 10
152.664466
 20
-138.435194
 30
0.0
 40
0.215
100
AcDbArc
 50
0.0
 51
90.0
  0
ARC
  5
1BA
100
AcDbEntity
  8
CLASS1
  6
CONTINUOUS
 62
     7
100
AcDbCircle
 10
152.664466
 20
-138.442006
 30
0.0
 40
0.215
100
AcDbArc
 50
270.0
 51
0.0
  0
LINE
  5
1BB
100
AcDbEntity
  8
CLASS1
  6
CONTINUOUS
 62
     7
100
AcDbLine
 10
152.698176
 20
-139.223736
 30
0.0
 11
152.698176
 21
-139.221427
 31
0.0
  0
ARC
  5
1BC
100
AcDbEntity
  8
CLASS1
  6
CONTINUOUS
 62
     7
100
AcDbCircle
 10
152.493176
 20
-139.221427
 30
0.0
 40
0.205
100
AcDbArc
 50
0.0
 51
90.0
  0
ARC
  5
1BD
100
AcDbEntity
  8
CLASS1
  6
CONTINUOUS
 62
     7
100
AcDbCircle
 10
152.493176
 20
-139.223736
 30
0.0
 40
0.205
100
AcDbArc
 50
270.0
 51
0.0
  0
ARC
  5
1BE
100
AcDbEntity
  8
CLASS1
  6
CONTINUOUS
 62
     7
100
AcDbCircle
 10
148.929077
 20
-139.221427
 30
0.0
 40
0.205
100
AcDbArc
 50
90.0
 51
180.0
  0
ARC
  5
1BF
100
AcDbEntity
  8
CLASS1
  6
CONTINUOUS
 62
     7
100
AcDbCircle
 10
148.929077
 20
-139.223736
 30
0.0
 40
0.205
100
AcDbArc
 50
180.0
 51
270.0
  0
LINE
  5
1C0
100
AcDbEntity
  8
CLASS1
  6
CONTINUOUS
 62
     7
100
AcDbLine
 10
148.843092
 20
-139.893046
 30
0.0
 11
148.843092
 21
-139.895098
 31
0.0
  0
ARC
  5
1C1
100
AcDbEntity
  8
CLASS1
  6
CONTINUOUS
 62
     7
100
AcDbCircle
 10
149.033092
 20
-139.895098
 30
0.0
 40
0.19
100
AcDbArc
 50
90.0
 51
180.0
  0
ARC
  5
1C2
100
AcDbEntity
  8
CLASS1
  6
CONTINUOUS
 62
     7
100
AcDbCircle
 10
149.033092
 20
-139.893046
 30
0.0
 40
0.19
100
AcDbArc
 50
180.0
 51
270.0
  0
ARC
  5
1C3
100
AcDbEntity
  8
CLASS1
  6
CONTINUOUS
 62
     7
100
AcDbCircle
 10
152.381997
 20
-139.895098
 30
0.0
 40
0.19
100
AcDbArc
 50
0.0
 51
90.0
  0
ARC
  5
1C4
100
AcDbEntity
  8
CLASS1
  6
CONTINUOUS
 62
     7
100
AcDbCircle
 10
152.381997
 20
-139.893046
 30
0.0
 40
0.19
100
AcDbArc
 50
270.0
 51
0.0
  0
LINE
  5
1C5
100
AcDbEntity
  8
CLASS1
  6
CONTINUOUS
 62
     7
100
AcDbLine
 10
152.85368
 20
-140.572013
 30
0.0
 11
152.85368
 21
-140.569269
 31
0.0
  0
ARC
  5
1C6
100
AcDbEntity
  8
CLASS1
  6
CONTINUOUS
 62
     7
100
AcDbCircle
 10
152.65368
 20
-140.569269
 30
0.0
 40
0.2
100
AcDbArc
 50
0.0
 51
90.0
  0
ARC
  5
1C7
100
AcDbEntity
  8
CLASS1
  6
CONTINUOUS
 62
     7
100
AcDbCircle
 10
152.65368
 20
-140.572013
 30
0.0
 40
0.2
100
AcDbArc
 50
270.0
 51
0.0
  0
LINE
  5
1C8
100
AcDbEntity
  8
CLASS1
  6
CONTINUOUS
 62
     7
100
AcDbLine
 10
148.565379
 20
-140.572013
 30
0.0
 11
148.565379
 21
-140.569269
 31
0.0
  0
ARC
  5
1C9
100
AcDbEntity
  8
CLASS1
  6
CONTINUOUS
 62
     7
100
AcDbCircle
 10
148.765379
 20
-140.569269
 30
0.0
 40
0.2
100
AcDbArc
 50
90.0
 51
180.0
  0
ARC
  5
1CA
100
AcDbEntity
  8
CLASS1
  6
CONTINUOUS
 62
     7
100
AcDbCircle
 10
148.765379
 20
-140.572013
 30
0.0
 40
0.2
100
AcDbArc
 50
180.0
 51
270.0
  0
ARC
  5
1CB
100
AcDbEntity
  8
CLASS1
  6
CONTINUOUS
 62
     7
100
AcDbCircle
 10
150.047921
 20
-137.629327
 30
0.0
 40
0.10853
100
AcDbArc
 50
126.675585
 51
176.630127
  0
ARC
  5
1CC
100
AcDbEntity
  8
CLASS1
  6
CONTINUOUS
 62
     7
100
AcDbCircle
 10
150.18083
 20
-137.791089
 30
0.0
 40
0.317809
100
AcDbArc
 50
104.366087
 51
128.474852
  0
ARC
  5
1CD
100
AcDbEntity
  8
CLASS1
  6
CONTINUOUS
 62
     7
100
AcDbCircle
 10
150.261196
 20
-138.058555
 30
0.0
 40
0.596963
100
AcDbArc
 50
89.69801
 51
105.469006
  0
ARC
  5
1CE
100
AcDbEntity
  8
CLASS1
  6
CONTINUOUS
 62
     7
100
AcDbCircle
 10
150.267488
 20
-138.058553
 30
0.0
 40
0.596961
100
AcDbArc
 50
74.528673
 51
90.301894
  0
ARC
  5
1CF
100
AcDbEntity
  8
CLASS1
  6
CONTINUOUS
 62
     7
100
AcDbCircle
 10
150.347904
 20
-137.791105
 30
0.0
 40
0.317812
100
AcDbArc
 50
51.531006
 51
75.639125
  0
ARC
  5
1D0
100
AcDbEntity
  8
CLASS1
  6
CONTINUOUS
 62
     7
100
AcDbCircle
 10
150.480778
 20
-137.629313
 30
0.0
 40
0.108531
100
AcDbArc
 50
3.353101
 51
53.317086
  0
ARC
  5
1D1
100
AcDbEntity
  8
CLASS1
  6
CONTINUOUS
 62
     7
100
AcDbCircle
 10
151.262019
 20
-137.828013
 30
0.0
 40
0.355905
100
AcDbArc
 50
53.628533
 51
75.809513
  0
ARC
  5
1D2
100
AcDbEntity
  8
CLASS1
  6
CONTINUOUS
 62
     7
100
AcDbCircle
 10
151.405725
 20
-137.63128
 30
0.0
 40
0.112281
100
AcDbArc
 50
4.259416
 51
53.140753
  0
ARC
  5
1D3
100
AcDbEntity
  8
CLASS1
  6
CONTINUOUS
 62
     7
100
AcDbCircle
 10
150.951338
 20
-137.629892
 30
0.0
 40
0.107586
100
AcDbArc
 50
125.340291
 51
176.30253
  0
ARC
  5
1D4
100
AcDbEntity
  8
CLASS1
  6
CONTINUOUS
 62
     7
100
AcDbCircle
 10
151.092287
 20
-137.807508
 30
0.0
 40
0.334226
100
AcDbArc
 50
103.828107
 51
127.438757
  0
ARC
  5
1D5
100
AcDbEntity
  8
CLASS1
  6
CONTINUOUS
 62
     7
100
AcDbCircle
 10
151.177484
 20
-138.1011
 30
0.0
 40
0.639796
100
AcDbArc
 50
89.699571
 51
104.952657
  0
ARC
  5
1D6
100
AcDbEntity
  8
CLASS1
  6
CONTINUOUS
 62
     7
100
AcDbCircle
 10
151.184188
 20
-138.1011
 30
0.0
 40
0.639795
100
AcDbArc
 50
75.047458
 51
90.299936
  0
LINE
  5
1D7
100
AcDbEntity
  8
CLASS1
  6
CONTINUOUS
 62
     7
100
AcDbLine
 10
149.141229
 20
-138.220194
 30
0.0
 11
148.945527
 21
-137.869051
 31
0.0
  0
LINE
  5
1D8
100
AcDbEntity
  8
CLASS1
  6
CONTINUOUS
 62
     7
100
AcDbLine
 10
149.816168
 20
-138.220198
 30
0.0
 11
149.504101
 21
-137.660223
 31
0.0
  0
LINE
  5
1D9
100
AcDbEntity
  8
CLASS1
  6
CONTINUOUS
 62
     7
100
AcDbLine
 10
149.504101
 20
-137.660223
 30
0.0
 11
149.350204
 21
-137.537265
 31
0.0
  0
LINE
  5
1DA
100
AcDbEntity
  8
CLASS1
  6
CONTINUOUS
 62
     7
100
AcDbLine
 10
149.350204
 20
-137.537265
 30
0.0
 11
149.154251
 21
-137.557399
 31
0.0
  0
LINE
  5
1DB
100
AcDbEntity
  8
CLASS1
  6
CONTINUOUS
 62
     7
100
AcDbLine
 10
149.154251
 20
-137.557399
 30
0.0
 11
149.015308
 21
-137.631626
 31
0.0
  0
ARC
  5
1DC
100
AcDbEntity
  8
CLASS1
  6
CONTINUOUS
 62
     7
100
AcDbCircle
 10
149.097034
 20
-137.784613
 30
0.0
 40
0.173448
100
AcDbArc
 50
118.111224
 51
209.131704
  0
LINE
  5
1DD
100
AcDbEntity
  8
CLASS1
  6
CONTINUOUS
 62
     7
100
AcDbLine
 10
152.344837
 20
-138.220194
 30
0.0
 11
152.664466
 21
-138.220194
 31
0.0
  0
LINE
  5
1DE
100
AcDbEntity
  8
CLASS1
  6
CONTINUOUS
 62
     7
100
AcDbLine
 10
151.689204
 20
-138.220198
 30
0.0
 11
151.96699
 21
-137.666586
 31
0.0
  0
LINE
  5
1DF
100
AcDbEntity
  8
CLASS1
  6
CONTINUOUS
 62
     7
100
AcDbLine
 10
151.96699
 20
-137.666586
 30
0.0
 11
152.11516
 21
-137.537159
 31
0.0
  0
LINE
  5
1E0
100
AcDbEntity
  8
CLASS1
  6
CONTINUOUS
 62
     7
100
AcDbLine
 10
152.11516
 20
-137.537159
 30
0.0
 11
152.311573
 21
-137.548463
 31
0.0
  0
LINE
  5
1E1
100
AcDbEntity
  8
CLASS1
  6
CONTINUOUS
 62
     7
100
AcDbLine
 10
152.311573
 20
-137.548463
 30
0.0
 11
152.450695
 21
-137.614841
 31
0.0
  0
LINE
  5
1E2
100
AcDbEntity
  8
CLASS1
  6
CONTINUOUS
 62
     7
100
AcDbLine
 10
152.531023
 20
-137.849171
 30
0.0
 11
152.344837
 21
-138.220194
 31
0.0
  0
ARC
  5
1E3
100
AcDbEntity
  8
CLASS1
  6
CONTINUOUS
 62
     7
100
AcDbCircle
 10
152.375998
 20
-137.77138
 30
0.0
 40
0.173448
100
AcDbArc
 50
333.352695
 51
64.490503
  0
LINE
  5
1E4
100
AcDbEntity
  8
CLASS1
  6
CONTINUOUS
 62
     7
100
AcDbLine
 10
151.5177
 20
-138.220194
 30
0.0
 11
151.689204
 21
-138.220194
 31
0.0
  0
LINE
  5
1E5
100
AcDbEntity
  8
CLASS1
  6
CONTINUOUS
 62
     7
100
AcDbLine
 10
149.816166
 20
-138.220194
 30
0.0
 11
149.939579
 21
-138.220194
 31
0.0
  0
LINE
  5
1E6
100
AcDbEntity
  8
CLASS1
  6
CONTINUOUS
 62
     7
100
AcDbLine
 10
150.589122
 20
-138.220198
 30
0.0
 11
150.843976
 21
-138.220198
 31
0.0
  0
LINE
  5
1E7
100
AcDbEntity
  8
CLASS1
  6
CONTINUOUS
 62
     7
100
AcDbLine
 10
149.618579
 20
-138.657006
 30
0.0
 11
149.757634
 21
-139.016427
 31
0.0
  0
LINE
  5
1E8
100
AcDbEntity
  8
CLASS1
  6
CONTINUOUS
 62
     7
100
AcDbLine
 10
150.29562
 20
-138.657006
 30
0.0
 11
150.417926
 21
-139.016427
 31
0.0
  0
LINE
  5
1E9
100
AcDbEntity
  8
CLASS1
  6
CONTINUOUS
 62
     7
100
AcDbLine
 10
151.057897
 20
-139.016427
 30
0.0
 11
151.201594
 21
-138.657006
 31
0.0
  0
LINE
  5
1EA
100
AcDbEntity
  8
CLASS1
  6
CONTINUOUS
 62
     7
100
AcDbLine
 10
151.849342
 20
-138.657006
 30
0.0
 11
151.752052
 21
-139.016427
 31
0.0
  0
LINE
  5
1EB
100
AcDbEntity
  8
CLASS1
  6
CONTINUOUS
 62
     7
100
AcDbLine
 10
149.939579
 20
-138.220198
 30
0.0
 11
149.939578
 21
-137.622951
 31
0.0
  0
LINE
  5
1EC
100
AcDbEntity
  8
CLASS1
  6
CONTINUOUS
 62
     7
100
AcDbLine
 10
150.589123
 20
-137.622965
 30
0.0
 11
150.589122
 21
-138.220198
 31
0.0
  0
LINE
  5
1ED
100
AcDbEntity
  8
CLASS1
  6
CONTINUOUS
 62
     7
100
AcDbLine
 10
150.843976
 20
-138.220198
 30
0.0
 11
150.843975
 21
-137.622955
 31
0.0
  0
LINE
  5
1EE
100
AcDbEntity
  8
CLASS1
  6
CONTINUOUS
 62
     7
100
AcDbLine
 10
151.517696
 20
-137.62294
 30
0.0
 11
151.5177
 21
-138.220194
 31
0.0
  0
LINE
  5
1EF
100
AcDbEntity
  8
CLASS1
  6
CONTINUOUS
 62
     7
100
AcDbLine
 10
150.29562
 20
-138.657006
 30
0.0
 11
151.201594
 21
-138.657006
 31
0.0
  0
LINE
  5
1F0
100
AcDbEntity
  8
CLASS1
  6
CONTINUOUS
 62
     7
100
AcDbLine
 10
151.849342
 20
-138.657006
 30
0.0
 11
152.664466
 21
-138.657006
 31
0.0
  0
LINE
  5
1F1
100
AcDbEntity
  8
CLASS1
  6
CONTINUOUS
 62
     7
100
AcDbLine
 10
151.752052
 20
-139.016427
 30
0.0
 11
152.493176
 21
-139.016427
 31
0.0
  0
LINE
  5
1F2
100
AcDbEntity
  8
CLASS1
  6
CONTINUOUS
 62
     7
100
AcDbLine
 10
150.417926
 20
-139.016427
 30
0.0
 11
151.057897
 21
-139.016427
 31
0.0
  0
LINE
  5
1F3
100
AcDbEntity
  8
CLASS1
  6
CONTINUOUS
 62
     7
100
AcDbLine
 10
151.063263
 20
-139.428736
 30
0.0
 11
152.493176
 21
-139.428736
 31
0.0
  0
LINE
  5
1F4
100
AcDbEntity
  8
CLASS1
  6
CONTINUOUS
 62
     7
100
AcDbLine
 10
151.063263
 20
-139.705098
 30
0.0
 11
152.381997
 21
-139.705098
 31
0.0
  0
LINE
  5
1F5
100
AcDbEntity
  8
CLASS1
  6
CONTINUOUS
 62
     7
100
AcDbLine
 10
150.389231
 20
-139.428736
 30
0.0
 11
150.389231
 21
-139.705098
 31
0.0
  0
LINE
  5
1F6
100
AcDbEntity
  8
CLASS1
  6
CONTINUOUS
 62
     7
100
AcDbLine
 10
151.063263
 20
-139.428736
 30
0.0
 11
151.063263
 21
-139.705098
 31
0.0
  0
LINE
  5
1F7
100
AcDbEntity
  8
CLASS1
  6
CONTINUOUS
 62
     7
100
AcDbLine
 10
150.389231
 20
-140.083046
 30
0.0
 11
150.389231
 21
-140.369269
 31
0.0
  0
LINE
  5
1F8
100
AcDbEntity
  8
CLASS1
  6
CONTINUOUS
 62
     7
100
AcDbLine
 10
151.063263
 20
-140.083046
 30
0.0
 11
151.063263
 21
-140.369269
 31
0.0
  0
LINE
  5
1F9
100
AcDbEntity
  8
CLASS1
  6
CONTINUOUS
 62
     7
100
AcDbLine
 10
151.5299
 20
-140.772013
 30
0.0
 11
152.65368
 21
-140.772013
 31
0.0
  0
LINE
  5
1FA
100
AcDbEntity
  8
CLASS1
  6
CONTINUOUS
 62
     7
100
AcDbLine
 10
151.063263
 20
-140.369269
 30
0.0
 11
152.65368
 21
-140.369269
 31
0.0
  0
LINE
  5
1FB
100
AcDbEntity
  8
CLASS1
  6
CONTINUOUS
 62
     7
100
AcDbLine
 10
151.063263
 20
-140.083046
 30
0.0
 11
152.381997
 21
-140.083046
 31
0.0
  0
LINE
  5
1FC
100
AcDbEntity
  8
CLASS1
  6
CONTINUOUS
 62
     7
100
AcDbLine
 10
150.001425
 20
-140.772013
 30
0.0
 11
149.393127
 21
-141.021141
 31
0.0
  0
LINE
  5
1FD
100
AcDbEntity
  8
CLASS1
  6
CONTINUOUS
 62
     7
100
AcDbLine
 10
149.393127
 20
-141.021141
 30
0.0
 11
148.75516
 21
-141.179535
 31
0.0
  0
LINE
  5
1FE
100
AcDbEntity
  8
CLASS1
  6
CONTINUOUS
 62
     7
100
AcDbLine
 10
148.840006
 20
-141.686203
 30
0.0
 11
149.647252
 21
-141.464632
 31
0.0
  0
LINE
  5
1FF
100
AcDbEntity
  8
CLASS1
  6
CONTINUOUS
 62
     7
100
AcDbLine
 10
149.647252
 20
-141.464632
 30
0.0
 11
150.389228
 21
-141.07706
 31
0.0
  0
LINE
  5
200
100
AcDbEntity
  8
CLASS1
  6
CONTINUOUS
 62
     7
100
AcDbLine
 10
150.389228
 20
-141.07706
 30
0.0
 11
150.389242
 21
-141.555176
 31
0.0
  0
LINE
  5
201
100
AcDbEntity
  8
CLASS1
  6
CONTINUOUS
 62
     7
100
AcDbLine
 10
151.06327
 20
-141.555176
 30
0.0
 11
151.063259
 21
-141.084227
 31
0.0
  0
LINE
  5
202
100
AcDbEntity
  8
CLASS1
  6
CONTINUOUS
 62
     7
100
AcDbLine
 10
150.649414
 20
-141.815348
 30
0.0
 11
150.803098
 21
-141.815348
 31
0.0
  0
LINE
  5
203
100
AcDbEntity
  8
CLASS1
  6
CONTINUOUS
 62
     7
100
AcDbLine
 10
151.792597
 20
-141.461618
 30
0.0
 11
151.063259
 21
-141.084227
 31
0.0
  0
LINE
  5
204
100
AcDbEntity
  8
CLASS1
  6
CONTINUOUS
 62
     7
100
AcDbLine
 10
151.792597
 20
-141.461618
 30
0.0
 11
152.583512
 21
-141.682551
 31
0.0
  0
LINE
  5
205
100
AcDbEntity
  8
CLASS1
  6
CONTINUOUS
 62
     7
100
AcDbLine
 10
152.669733
 20
-141.179864
 30
0.0
 11
152.082052
 21
-141.025583
 31
0.0
  0
LINE
  5
206
100
AcDbEntity
  8
CLASS1
  6
CONTINUOUS
 62
     7
100
AcDbLine
 10
152.082052
 20
-141.025583
 30
0.0
 11
151.529906
 21
-140.772013
 31
0.0
  0
ARC
  5
207
100
AcDbEntity
  8
CLASS1
  6
CONTINUOUS
 62
     7
100
AcDbCircle
 10
148.797583
 20
-141.432869
 30
0.0
 40
0.256862
100
AcDbArc
 50
99.506475
 51
205.388832
  0
ARC
  5
208
100
AcDbEntity
  8
CLASS1
  6
CONTINUOUS
 62
     7
100
AcDbCircle
 10
148.797583
 20
-141.432869
 30
0.0
 40
0.256862
100
AcDbArc
 50
205.388832
 51
279.506482
  0
ARC
  5
209
100
AcDbEntity
  8
CLASS1
  6
CONTINUOUS
 62
     7
100
AcDbCircle
 10
150.649414
 20
-141.555176
 30
0.0
 40
0.260172
100
AcDbArc
 50
180.0
 51
269.999995
  0
ARC
  5
20A
100
AcDbEntity
  8
CLASS1
  6
CONTINUOUS
 62
     7
100
AcDbCircle
 10
150.803098
 20
-141.555176
 30
0.0
 40
0.260172
100
AcDbArc
 50
270.0
 51
0.0
  0
LINE
  5
20B
100
AcDbEntity
  8
CLASS1
  6
CONTINUOUS
 62
     7
100
AcDbLine
 10
151.063259
 20
-141.084227
 30
0.0
 11
151.792597
 21
-141.461618
 31
0.0
  0
LINE
  5
20C
100
AcDbEntity
  8
CLASS1
  6
CONTINUOUS
 62
     7
100
AcDbLine
 10
151.792597
 20
-141.461618
 30
0.0
 11
152.583512
 21
-141.682551
 31
0.0
  0
LINE
  5
20D
100
AcDbEntity
  8
CLASS1
  6
CONTINUOUS
 62
     7
100
AcDbLine
 10
152.669733
 20
-141.179864
 30
0.0
 11
152.082052
 21
-141.025583
 31
0.0
  0
LINE
  5
20E
100
AcDbEntity
  8
CLASS1
  6
CONTINUOUS
 62
     7
100
AcDbLine
 10
152.082052
 20
-141.025583
 30
0.0
 11
151.529906
 21
-140.772013
 31
0.0
  0
ARC
  5
20F
100
AcDbEntity
  8
CLASS1
  6
CONTINUOUS
 62
     7
100
AcDbCircle
 10
152.626622
 20
-141.431208
 30
0.0
 40
0.255014
100
AcDbArc
 50
260.267374
 51
334.385023
  0
ARC
  5
210
100
AcDbEntity
  8
CLASS1
  6
CONTINUOUS
 62
     7
100
AcDbCircle
 10
152.626622
 20
-141.431208
 30
0.0
 40
0.255014
100
AcDbArc
 50
334.385023
 51
80.267378
  0
LINE
  5
211
100
AcDbEntity
  8
CLASS1
  6
CONTINUOUS
 62
     7
100
AcDbLine
 10
153.899218
 20
-137.666272
 30
0.0
 11
153.899211
 21
-138.252619
 31
0.0
  0
LINE
  5
212
100
AcDbEntity
  8
CLASS1
  6
CONTINUOUS
 62
     7
100
AcDbLine
 10
153.87412
 20
-138.715561
 30
0.0
 11
153.640013
 21
-139.411465
 31
0.0
  0
LINE
  5
213
100
AcDbEntity
  8
CLASS1
  6
CONTINUOUS
 62
     7
100
AcDbLine
 10
154.540987
 20
-137.666272
 30
0.0
 11
154.540977
 21
-138.252619
 31
0.0
  0
LINE
  5
214
100
AcDbEntity
  8
CLASS1
  6
CONTINUOUS
 62
     7
100
AcDbLine
 10
154.503637
 20
-138.715565
 30
0.0
 11
154.728099
 21
-139.095313
 31
0.0
  0
LINE
  5
215
100
AcDbEntity
  8
CLASS1
  6
CONTINUOUS
 62
     7
100
AcDbLine
 10
154.728099
 20
-139.095313
 30
0.0
 11
154.934351
 21
-139.485251
 31
0.0
  0
LINE
  5
216
100
AcDbEntity
  8
CLASS1
  6
CONTINUOUS
 62
     7
100
AcDbLine
 10
153.640013
 20
-139.411465
 30
0.0
 11
153.311217
 21
-140.067958
 31
0.0
  0
LINE
  5
217
100
AcDbEntity
  8
CLASS1
  6
CONTINUOUS
 62
     7
100
AcDbLine
 10
153.311217
 20
-140.067958
 30
0.0
 11
153.273226
 21
-140.307609
 31
0.0
  0
LINE
  5
218
100
AcDbEntity
  8
CLASS1
  6
CONTINUOUS
 62
     7
100
AcDbLine
 10
153.273226
 20
-140.307609
 30
0.0
 11
153.40959
 21
-140.508309
 31
0.0
  0
LINE
  5
219
100
AcDbEntity
  8
CLASS1
  6
CONTINUOUS
 62
     7
100
AcDbLine
 10
153.685663
 20
-140.440404
 30
0.0
 11
153.799167
 21
-140.211339
 31
0.0
  0
LINE
  5
21A
100
AcDbEntity
  8
CLASS1
  6
CONTINUOUS
 62
     7
100
AcDbLine
 10
153.799167
 20
-140.211339
 30
0.0
 11
153.899219
 21
-139.976087
 31
0.0
  0
LINE
  5
21B
100
AcDbEntity
  8
CLASS1
  6
CONTINUOUS
 62
     7
100
AcDbLine
 10
153.899219
 20
-139.976087
 30
0.0
 11
153.899209
 21
-141.578042
 31
0.0
  0
LINE
  5
21C
100
AcDbEntity
  8
CLASS1
  6
CONTINUOUS
 62
     7
100
AcDbLine
 10
154.536204
 20
-141.575901
 30
0.0
 11
154.536191
 21
-139.63189
 31
0.0
  0
LINE
  5
21D
100
AcDbEntity
  8
CLASS1
  6
CONTINUOUS
 62
     7
100
AcDbLine
 10
155.201421
 20
-137.796321
 30
0.0
 11
155.099417
 21
-138.255176
 31
0.0
  0
LINE
  5
21E
100
AcDbEntity
  8
CLASS1
  6
CONTINUOUS
 62
     7
100
AcDbLine
 10
155.099417
 20
-138.255176
 30
0.0
 11
154.927743
 21
-138.692761
 31
0.0
  0
LINE
  5
21F
100
AcDbEntity
  8
CLASS1
  6
CONTINUOUS
 62
     7
100
AcDbLine
 10
155.449631
 20
-138.923149
 30
0.0
 11
155.51787
 21
-138.74259
 31
0.0
  0
LINE
  5
220
100
AcDbEntity
  8
CLASS1
  6
CONTINUOUS
 62
     7
100
AcDbLine
 10
155.51787
 20
-138.74259
 30
0.0
 11
155.579313
 21
-138.559606
 31
0.0
  0
LINE
  5
221
100
AcDbEntity
  8
CLASS1
  6
CONTINUOUS
 62
     7
100
AcDbLine
 10
155.579313
 20
-138.559606
 30
0.0
 11
156.008556
 21
-138.559607
 31
0.0
  0
LINE
  5
222
100
AcDbEntity
  8
CLASS1
  6
CONTINUOUS
 62
     7
100
AcDbLine
 10
156.008556
 20
-138.559607
 30
0.0
 11
156.008556
 21
-139.221385
 31
0.0
  0
LINE
  5
223
100
AcDbEntity
  8
CLASS1
  6
CONTINUOUS
 62
     7
100
AcDbLine
 10
156.008556
 20
-139.221385
 30
0.0
 11
155.211079
 21
-139.221381
 31
0.0
  0
LINE
  5
224
100
AcDbEntity
  8
CLASS1
  6
CONTINUOUS
 62
     7
100
AcDbLine
 10
155.725188
 20
-137.982563
 30
0.0
 11
155.704764
 21
-138.083363
 31
0.0
  0
LINE
  5
225
100
AcDbEntity
  8
CLASS1
  6
CONTINUOUS
 62
     7
100
AcDbLine
 10
155.704764
 20
-138.083363
 30
0.0
 11
156.008556
 21
-138.083363
 31
0.0
  0
LINE
  5
226
100
AcDbEntity
  8
CLASS1
  6
CONTINUOUS
 62
     7
100
AcDbLine
 10
156.008556
 20
-138.083363
 30
0.0
 11
156.008542
 21
-137.689006
 31
0.0
  0
LINE
  5
227
100
AcDbEntity
  8
CLASS1
  6
CONTINUOUS
 62
     7
100
AcDbLine
 10
156.673015
 20
-137.688641
 30
0.0
 11
156.673017
 21
-138.083363
 31
0.0
  0
LINE
  5
228
100
AcDbEntity
  8
CLASS1
  6
CONTINUOUS
 62
     7
100
AcDbLine
 10
156.673017
 20
-138.559607
 30
0.0
 11
156.673017
 21
-139.221385
 31
0.0
  0
LINE
  5
229
100
AcDbEntity
  8
CLASS1
  6
CONTINUOUS
 62
     7
100
AcDbLine
 10
156.751901
 20
-139.697328
 30
0.0
 11
157.145647
 21
-140.337539
 31
0.0
  0
LINE
  5
22A
100
AcDbEntity
  8
CLASS1
  6
CONTINUOUS
 62
     7
100
AcDbLine
 10
157.145647
 20
-140.337539
 30
0.0
 11
157.64333
 21
-140.900761
 31
0.0
  0
LINE
  5
22B
100
AcDbEntity
  8
CLASS1
  6
CONTINUOUS
 62
     7
100
AcDbLine
 10
157.18718
 20
-141.330124
 30
0.0
 11
156.906512
 21
-140.953448
 31
0.0
  0
LINE
  5
22C
100
AcDbEntity
  8
CLASS1
  6
CONTINUOUS
 62
     7
100
AcDbLine
 10
156.906512
 20
-140.953448
 30
0.0
 11
156.673019
 21
-140.545844
 31
0.0
  0
LINE
  5
22D
100
AcDbEntity
  8
CLASS1
  6
CONTINUOUS
 62
     7
100
AcDbLine
 10
156.673019
 20
-140.545844
 30
0.0
 11
156.673025
 21
-141.570553
 31
0.0
  0
LINE
  5
22E
100
AcDbEntity
  8
CLASS1
  6
CONTINUOUS
 62
     7
100
AcDbLine
 10
156.008557
 20
-141.597001
 30
0.0
 11
156.008542
 21
-140.475032
 31
0.0
  0
LINE
  5
22F
100
AcDbEntity
  8
CLASS1
  6
CONTINUOUS
 62
     7
100
AcDbLine
 10
156.008542
 20
-140.475032
 30
0.0
 11
155.657966
 21
-140.989636
 31
0.0
  0
LINE
  5
230
100
AcDbEntity
  8
CLASS1
  6
CONTINUOUS
 62
     7
100
AcDbLine
 10
155.211079
 20
-139.697326
 30
0.0
 11
155.884257
 21
-139.697326
 31
0.0
  0
LINE
  5
231
100
AcDbEntity
  8
CLASS1
  6
CONTINUOUS
 62
     7
100
AcDbLine
 10
155.884257
 20
-139.697326
 30
0.0
 11
155.424003
 21
-140.387504
 31
0.0
  0
LINE
  5
232
100
AcDbEntity
  8
CLASS1
  6
CONTINUOUS
 62
     7
100
AcDbLine
 10
155.424003
 20
-140.387504
 30
0.0
 11
154.834862
 21
-140.971536
 31
0.0
  0
ARC
  5
233
100
AcDbEntity
  8
CLASS1
  6
CONTINUOUS
 62
     7
100
AcDbCircle
 10
154.083606
 20
-137.685657
 30
0.0
 40
0.185403
100
AcDbArc
 50
139.698055
 51
173.998464
  0
ARC
  5
234
100
AcDbEntity
  8
CLASS1
  6
CONTINUOUS
 62
     7
100
AcDbCircle
 10
154.153542
 20
-137.772484
 30
0.0
 40
0.295647
100
AcDbArc
 50
108.51638
 51
135.628275
  0
ARC
  5
235
100
AcDbEntity
  8
CLASS1
  6
CONTINUOUS
 62
     7
100
AcDbCircle
 10
154.217591
 20
-137.941433
 30
0.0
 40
0.476242
100
AcDbArc
 50
89.69786
 51
109.368145
  0
ARC
  5
236
100
AcDbEntity
  8
CLASS1
  6
CONTINUOUS
 62
     7
100
AcDbCircle
 10
154.231355
 20
-137.889426
 30
0.0
 40
0.424379
100
AcDbArc
 50
58.981972
 51
91.519354
  0
ARC
  5
237
100
AcDbEntity
  8
CLASS1
  6
CONTINUOUS
 62
     7
100
AcDbCircle
 10
154.348067
 20
-137.691418
 30
0.0
 40
0.194552
100
AcDbArc
 50
7.42615
 51
60.577755
  0
LINE
  5
238
100
AcDbEntity
  8
CLASS1
  6
CONTINUOUS
 62
     7
100
AcDbLine
 10
153.39399
 20
-138.525568
 30
0.0
 11
153.39399
 21
-138.452619
 31
0.0
  0
LINE
  5
239
100
AcDbEntity
  8
CLASS1
  6
CONTINUOUS
 62
     7
100
AcDbLine
 10
153.59399
 20
-138.252619
 30
0.0
 11
153.899211
 21
-138.252619
 31
0.0
  0
LINE
  5
23A
100
AcDbEntity
  8
CLASS1
  6
CONTINUOUS
 62
     7
100
AcDbLine
 10
153.58399
 20
-138.715568
 30
0.0
 11
153.87412
 21
-138.715568
 31
0.0
  0
ARC
  5
23B
100
AcDbEntity
  8
CLASS1
  6
CONTINUOUS
 62
     7
100
AcDbCircle
 10
153.59399
 20
-138.452619
 30
0.0
 40
0.2
100
AcDbArc
 50
90.0
 51
180.0
  0
ARC
  5
23C
100
AcDbEntity
  8
CLASS1
  6
CONTINUOUS
 62
     7
100
AcDbCircle
 10
153.58399
 20
-138.525568
 30
0.0
 40
0.19
100
AcDbArc
 50
180.0
 51
270.0
  0
LINE
  5
23D
100
AcDbEntity
  8
CLASS1
  6
CONTINUOUS
 62
     7
100
AcDbLine
 10
154.879182
 20
-138.525568
 30
0.0
 11
154.879182
 21
-138.452619
 31
0.0
  0
ARC
  5
23E
100
AcDbEntity
  8
CLASS1
  6
CONTINUOUS
 62
     7
100
AcDbCircle
 10
154.689182
 20
-138.525568
 30
0.0
 40
0.19
100
AcDbArc
 50
270.0
 51
0.0
  0
ARC
  5
23F
100
AcDbEntity
  8
CLASS1
  6
CONTINUOUS
 62
     7
100
AcDbCircle
 10
154.679182
 20
-138.452619
 30
0.0
 40
0.2
100
AcDbArc
 50
0.0
 51
90.0
  0
ARC
  5
240
100
AcDbEntity
  8
CLASS1
  6
CONTINUOUS
 62
     7
100
AcDbCircle
 10
153.517231
 20
-140.35078
 30
0.0
 40
0.190793
100
AcDbArc
 50
235.654878
 51
331.982178
  0
LINE
  5
241
100
AcDbEntity
  8
CLASS1
  6
CONTINUOUS
 62
     7
100
AcDbLine
 10
154.536191
 20
-139.63189
 30
0.0
 11
154.545296
 21
-139.665634
 31
0.0
  0
LINE
  5
242
100
AcDbEntity
  8
CLASS1
  6
CONTINUOUS
 62
     7
100
AcDbLine
 10
154.545296
 20
-139.665634
 30
0.0
 11
154.621141
 21
-139.767776
 31
0.0
  0
LINE
  5
243
100
AcDbEntity
  8
CLASS1
  6
CONTINUOUS
 62
     7
100
AcDbLine
 10
154.621141
 20
-139.767776
 30
0.0
 11
154.746283
 21
-139.790686
 31
0.0
  0
ARC
  5
244
100
AcDbEntity
  8
CLASS1
  6
CONTINUOUS
 62
     7
100
AcDbCircle
 10
154.742406
 20
-139.577681
 30
0.0
 40
0.21304
100
AcDbArc
 50
271.042788
 51
25.712933
  0
ARC
  5
245
100
AcDbEntity
  8
CLASS1
  6
CONTINUOUS
 62
     7
100
AcDbCircle
 10
154.125498
 20
-141.556552
 30
0.0
 40
0.227306
100
AcDbArc
 50
185.424767
 51
253.207037
  0
ARC
  5
246
100
AcDbEntity
  8
CLASS1
  6
CONTINUOUS
 62
     7
100
AcDbCircle
 10
154.216309
 20
-141.372777
 30
0.0
 40
0.430812
100
AcDbArc
 50
248.701436
 51
301.725665
  0
ARC
  5
247
100
AcDbEntity
  8
CLASS1
  6
CONTINUOUS
 62
     7
100
AcDbCircle
 10
154.299266
 20
-141.548803
 30
0.0
 40
0.238483
100
AcDbArc
 50
307.019241
 51
353.475488
  0
LINE
  5
248
100
AcDbEntity
  8
CLASS1
  6
CONTINUOUS
 62
     7
100
AcDbLine
 10
154.540977
 20
-138.252619
 30
0.0
 11
154.679182
 21
-138.252619
 31
0.0
  0
LINE
  5
249
100
AcDbEntity
  8
CLASS1
  6
CONTINUOUS
 62
     7
100
AcDbLine
 10
154.503639
 20
-138.715568
 30
0.0
 11
154.689182
 21
-138.715568
 31
0.0
  0
LINE
  5
24A
100
AcDbEntity
  8
CLASS1
  6
CONTINUOUS
 62
     7
100
AcDbLine
 10
157.559956
 20
-138.329606
 30
0.0
 11
157.559956
 21
-138.313363
 31
0.0
  0
LINE
  5
24B
100
AcDbEntity
  8
CLASS1
  6
CONTINUOUS
 62
     7
100
AcDbLine
 10
157.676602
 20
-139.467326
 30
0.0
 11
157.676602
 21
-139.451381
 31
0.0
  0
ARC
  5
24C
100
AcDbEntity
  8
CLASS1
  6
CONTINUOUS
 62
     7
100
AcDbCircle
 10
157.329956
 20
-138.313363
 30
0.0
 40
0.23
100
AcDbArc
 50
0.0
 51
90.0
  0
ARC
  5
24D
100
AcDbEntity
  8
CLASS1
  6
CONTINUOUS
 62
     7
100
AcDbCircle
 10
157.329956
 20
-138.329606
 30
0.0
 40
0.23
100
AcDbArc
 50
270.0
 51
0.0
  0
ARC
  5
24E
100
AcDbEntity
  8
CLASS1
  6
CONTINUOUS
 62
     7
100
AcDbCircle
 10
157.446602
 20
-139.467326
 30
0.0
 40
0.23
100
AcDbArc
 50
270.0
 51
0.0
  0
ARC
  5
24F
100
AcDbEntity
  8
CLASS1
  6
CONTINUOUS
 62
     7
100
AcDbCircle
 10
157.446602
 20
-139.451381
 30
0.0
 40
0.23
100
AcDbArc
 50
0.0
 51
90.0
  0
LINE
  5
250
100
AcDbEntity
  8
CLASS1
  6
CONTINUOUS
 62
     7
100
AcDbLine
 10
154.981079
 20
-139.467326
 30
0.0
 11
154.981079
 21
-139.451381
 31
0.0
  0
ARC
  5
251
100
AcDbEntity
  8
CLASS1
  6
CONTINUOUS
 62
     7
100
AcDbCircle
 10
155.211079
 20
-139.451381
 30
0.0
 40
0.23
100
AcDbArc
 50
90.0
 51
180.0
  0
ARC
  5
252
100
AcDbEntity
  8
CLASS1
  6
CONTINUOUS
 62
     7
100
AcDbCircle
 10
155.211079
 20
-139.467326
 30
0.0
 40
0.23
100
AcDbArc
 50
180.0
 51
270.0
  0
LINE
  5
253
100
AcDbEntity
  8
CLASS1
  6
CONTINUOUS
 62
     7
100
AcDbLine
 10
156.673017
 20
-138.083363
 30
0.0
 11
157.329956
 21
-138.083363
 31
0.0
  0
LINE
  5
254
100
AcDbEntity
  8
CLASS1
  6
CONTINUOUS
 62
     7
100
AcDbLine
 10
156.673017
 20
-138.559606
 30
0.0
 11
157.329956
 21
-138.559606
 31
0.0
  0
LINE
  5
255
100
AcDbEntity
  8
CLASS1
  6
CONTINUOUS
 62
     7
100
AcDbLine
 10
156.673017
 20
-139.221381
 30
0.0
 11
157.446602
 21
-139.221381
 31
0.0
  0
LINE
  5
256
100
AcDbEntity
  8
CLASS1
  6
CONTINUOUS
 62
     7
100
AcDbLine
 10
156.751901
 20
-139.697326
 30
0.0
 11
157.446602
 21
-139.697326
 31
0.0
  0
LINE
  5
257
100
AcDbEntity
  8
CLASS1
  6
CONTINUOUS
 62
     7
100
AcDbLine
 10
155.725188
 20
-137.982563
 30
0.0
 11
155.7436
 21
-137.881376
 31
0.0
  0
ARC
  5
258
100
AcDbEntity
  8
CLASS1
  6
CONTINUOUS
 62
     7
100
AcDbCircle
 10
155.473124
 20
-137.834935
 30
0.0
 40
0.274433
100
AcDbArc
 50
350.257282
 51
171.911291
  0
ARC
  5
259
100
AcDbEntity
  8
CLASS1
  6
CONTINUOUS
 62
     7
100
AcDbCircle
 10
155.184574
 20
-138.817271
 30
0.0
 40
0.285421
100
AcDbArc
 50
154.136208
 51
338.225474
  0
ARC
  5
25A
100
AcDbEntity
  8
CLASS1
  6
CONTINUOUS
 62
     7
100
AcDbCircle
 10
155.025649
 20
-141.207345
 30
0.0
 40
0.303324
100
AcDbArc
 50
128.975302
 51
310.927472
  0
ARC
  5
25B
100
AcDbEntity
  8
CLASS1
  6
CONTINUOUS
 62
     7
100
AcDbCircle
 10
157.42701
 20
-141.12793
 30
0.0
 40
0.313688
100
AcDbArc
 50
220.133265
 51
46.401375
  0
ARC
  5
25C
100
AcDbEntity
  8
CLASS1
  6
CONTINUOUS
 62
     7
100
AcDbCircle
 10
156.250826
 20
-141.545339
 30
0.0
 40
0.247717
100
AcDbArc
 50
192.037594
 51
253.950529
  0
ARC
  5
25D
100
AcDbEntity
  8
CLASS1
  6
CONTINUOUS
 62
     7
100
AcDbCircle
 10
156.330651
 20
-141.329609
 30
0.0
 40
0.477412
100
AcDbArc
 50
251.901269
 51
292.659438
  0
ARC
  5
25E
100
AcDbEntity
  8
CLASS1
  6
CONTINUOUS
 62
     7
100
AcDbCircle
 10
156.447914
 20
-141.554561
 30
0.0
 40
0.225679
100
AcDbArc
 50
287.180561
 51
355.936619
  0
LINE
  5
25F
100
AcDbEntity
  8
CLASS1
  6
CONTINUOUS
 62
     7
100
AcDbLine
 10
155.224357
 20
-141.436518
 30
0.0
 11
155.657966
 21
-140.989636
 31
0.0
  0
ARC
  5
260
100
AcDbEntity
  8
CLASS1
  6
CONTINUOUS
 62
     7
100
AcDbCircle
 10
156.237655
 20
-137.715163
 30
0.0
 40
0.230595
100
AcDbArc
 50
105.46566
 51
173.48662
  0
ARC
  5
261
100
AcDbEntity
  8
CLASS1
  6
CONTINUOUS
 62
     7
100
AcDbCircle
 10
156.340268
 20
-137.920492
 30
0.0
 40
0.457985
100
AcDbArc
 50
59.313257
 51
110.996896
  0
ARC
  5
262
100
AcDbEntity
  8
CLASS1
  6
CONTINUOUS
 62
     7
100
AcDbCircle
 10
156.482488
 20
-137.693831
 30
0.0
 40
0.190597
100
AcDbArc
 50
1.560362
 51
61.306589
  0
LINE
  5
263
100
AcDbEntity
  8
CLASS1
  6
CONTINUOUS
 62
     7
100
AcDbLine
 10
158.395159
 20
-137.956383
 30
0.0
 11
160.492832
 21
-137.956383
 31
0.0
  0
LINE
  5
264
100
AcDbEntity
  8
CLASS1
  6
CONTINUOUS
 62
     7
100
AcDbLine
 10
158.395159
 20
-138.461607
 30
0.0
 11
160.520029
 21
-138.461607
 31
0.0
  0
LINE
  5
265
100
AcDbEntity
  8
CLASS1
  6
CONTINUOUS
 62
     7
100
AcDbLine
 10
158.492866
 20
-138.90917
 30
0.0
 11
160.215039
 21
-138.90917
 31
0.0
  0
LINE
  5
266
100
AcDbEntity
  8
CLASS1
  6
CONTINUOUS
 62
     7
100
AcDbLine
 10
158.492866
 20
-139.38959
 30
0.0
 11
159.022261
 21
-139.38959
 31
0.0
  0
LINE
  5
267
100
AcDbEntity
  8
CLASS1
  6
CONTINUOUS
 62
     7
100
AcDbLine
 10
159.022261
 20
-139.38959
 30
0.0
 11
159.022268
 21
-141.065847
 31
0.0
  0
LINE
  5
268
100
AcDbEntity
  8
CLASS1
  6
CONTINUOUS
 62
     7
100
AcDbLine
 10
159.022268
 20
-141.065847
 30
0.0
 11
158.350573
 21
-141.146395
 31
0.0
  0
LINE
  5
269
100
AcDbEntity
  8
CLASS1
  6
CONTINUOUS
 62
     7
100
AcDbLine
 10
158.417843
 20
-141.665938
 30
0.0
 11
159.479925
 21
-141.518516
 31
0.0
  0
LINE
  5
26A
100
AcDbEntity
  8
CLASS1
  6
CONTINUOUS
 62
     7
100
AcDbLine
 10
159.479925
 20
-141.518516
 30
0.0
 11
160.531255
 21
-141.307666
 31
0.0
  0
LINE
  5
26B
100
AcDbEntity
  8
CLASS1
  6
CONTINUOUS
 62
     7
100
AcDbLine
 10
159.691518
 20
-140.964309
 30
0.0
 11
160.426832
 21
-140.827893
 31
0.0
  0
LINE
  5
26C
100
AcDbEntity
  8
CLASS1
  6
CONTINUOUS
 62
     7
100
AcDbLine
 10
161.17066
 20
-141.420612
 30
0.0
 11
160.700603
 21
-139.972937
 31
0.0
  0
LINE
  5
26D
100
AcDbEntity
  8
CLASS1
  6
CONTINUOUS
 62
     7
100
AcDbLine
 10
160.700603
 20
-139.972937
 30
0.0
 11
160.520029
 21
-138.461607
 31
0.0
  0
LINE
  5
26E
100
AcDbEntity
  8
CLASS1
  6
CONTINUOUS
 62
     7
100
AcDbLine
 10
161.169238
 20
-138.461607
 30
0.0
 11
161.321
 21
-139.770812
 31
0.0
  0
LINE
  5
26F
100
AcDbEntity
  8
CLASS1
  6
CONTINUOUS
 62
     7
100
AcDbLine
 10
161.321
 20
-139.770812
 30
0.0
 11
161.709926
 21
-141.030092
 31
0.0
  0
LINE
  5
270
100
AcDbEntity
  8
CLASS1
  6
CONTINUOUS
 62
     7
100
AcDbLine
 10
160.492832
 20
-137.95638
 30
0.0
 11
160.492818
 21
-137.749462
 31
0.0
  0
LINE
  5
271
100
AcDbEntity
  8
CLASS1
  6
CONTINUOUS
 62
     7
100
AcDbLine
 10
161.161481
 20
-137.95638
 30
0.0
 11
161.161472
 21
-137.749283
 31
0.0
  0
LINE
  5
272
100
AcDbEntity
  8
CLASS1
  6
CONTINUOUS
 62
     7
100
AcDbLine
 10
161.923179
 20
-137.627736
 30
0.0
 11
162.193075
 21
-138.042271
 31
0.0
  0
LINE
  5
273
100
AcDbEntity
  8
CLASS1
  6
CONTINUOUS
 62
     7
100
AcDbLine
 10
162.193075
 20
-138.042271
 30
0.0
 11
162.425657
 21
-138.478837
 31
0.0
  0
LINE
  5
274
100
AcDbEntity
  8
CLASS1
  6
CONTINUOUS
 62
     7
100
AcDbLine
 10
161.925297
 20
-138.717873
 30
0.0
 11
161.793843
 21
-138.461606
 31
0.0
  0
LINE
  5
275
100
AcDbEntity
  8
CLASS1
  6
CONTINUOUS
 62
     7
100
AcDbLine
 10
158.145159
 20
-138.211607
 30
0.0
 11
158.145159
 21
-138.206383
 31
0.0
  0
ARC
  5
276
100
AcDbEntity
  8
CLASS1
  6
CONTINUOUS
 62
     7
100
AcDbCircle
 10
158.395159
 20
-138.206383
 30
0.0
 40
0.25
100
AcDbArc
 50
90.0
 51
180.0
  0
ARC
  5
277
100
AcDbEntity
  8
CLASS1
  6
CONTINUOUS
 62
     7
100
AcDbCircle
 10
158.395159
 20
-138.211607
 30
0.0
 40
0.25
100
AcDbArc
 50
180.0
 51
270.0
  0
LINE
  5
278
100
AcDbEntity
  8
CLASS1
  6
CONTINUOUS
 62
     7
100
AcDbLine
 10
158.242866
 20
-139.13959
 30
0.0
 11
158.242866
 21
-139.15917
 31
0.0
  0
ARC
  5
279
100
AcDbEntity
  8
CLASS1
  6
CONTINUOUS
 62
     7
100
AcDbCircle
 10
158.492866
 20
-139.15917
 30
0.0
 40
0.25
100
AcDbArc
 50
90.0
 51
180.0
  0
ARC
  5
27A
100
AcDbEntity
  8
CLASS1
  6
CONTINUOUS
 62
     7
100
AcDbCircle
 10
158.492866
 20
-139.13959
 30
0.0
 40
0.25
100
AcDbArc
 50
180.0
 51
270.0
  0
LINE
  5
27B
100
AcDbEntity
  8
CLASS1
  6
CONTINUOUS
 62
     7
100
AcDbLine
 10
160.465039
 20
-139.13959
 30
0.0
 11
160.465039
 21
-139.15917
 31
0.0
  0
ARC
  5
27C
100
AcDbEntity
  8
CLASS1
  6
CONTINUOUS
 62
     7
100
AcDbCircle
 10
160.215039
 20
-139.15917
 30
0.0
 40
0.25
100
AcDbArc
 50
0.0
 51
90.0
  0
ARC
  5
27D
100
AcDbEntity
  8
CLASS1
  6
CONTINUOUS
 62
     7
100
AcDbCircle
 10
160.215039
 20
-139.13959
 30
0.0
 40
0.25
100
AcDbArc
 50
270.0
 51
0.0
  0
LINE
  5
27E
100
AcDbEntity
  8
CLASS1
  6
CONTINUOUS
 62
     7
100
AcDbLine
 10
160.225851
 20
-139.38959
 30
0.0
 11
159.691527
 21
-139.38959
 31
0.0
  0
LINE
  5
27F
100
AcDbEntity
  8
CLASS1
  6
CONTINUOUS
 62
     7
100
AcDbLine
 10
161.161481
 20
-137.956383
 30
0.0
 11
161.476601
 21
-137.956383
 31
0.0
  0
LINE
  5
280
100
AcDbEntity
  8
CLASS1
  6
CONTINUOUS
 62
     7
100
AcDbLine
 10
161.169238
 20
-138.461607
 30
0.0
 11
161.793843
 21
-138.461607
 31
0.0
  0
ARC
  5
281
100
AcDbEntity
  8
CLASS1
  6
CONTINUOUS
 62
     7
100
AcDbCircle
 10
160.827157
 20
-137.799354
 30
0.0
 40
0.338041
100
AcDbArc
 50
8.513914
 51
171.512732
  0
ARC
  5
282
100
AcDbEntity
  8
CLASS1
  6
CONTINUOUS
 62
     7
100
AcDbCircle
 10
161.697672
 20
-137.789046
 30
0.0
 40
0.277262
100
AcDbArc
 50
35.577014
 51
217.12349
  0
ARC
  5
283
100
AcDbEntity
  8
CLASS1
  6
CONTINUOUS
 62
     7
100
AcDbCircle
 10
162.175477
 20
-138.598355
 30
0.0
 40
0.277263
100
AcDbArc
 50
205.535159
 51
25.535166
  0
LINE
  5
284
100
AcDbEntity
  8
CLASS1
  6
CONTINUOUS
 62
     7
100
AcDbLine
 10
162.503719
 20
-140.52735
 30
0.0
 11
162.437728
 21
-141.004566
 31
0.0
  0
LINE
  5
285
100
AcDbEntity
  8
CLASS1
  6
CONTINUOUS
 62
     7
100
AcDbLine
 10
162.437728
 20
-141.004566
 30
0.0
 11
162.267102
 21
-141.455095
 31
0.0
  0
ARC
  5
286
100
AcDbEntity
  8
CLASS1
  6
CONTINUOUS
 62
     7
100
AcDbCircle
 10
161.72706
 20
-141.177808
 30
0.0
 40
0.60707
100
AcDbArc
 50
203.57576
 51
332.82156
  0
ARC
  5
287
100
AcDbEntity
  8
CLASS1
  6
CONTINUOUS
 62
     7
100
AcDbCircle
 10
161.766043
 20
-141.006921
 30
0.0
 40
0.060713
100
AcDbArc
 50
202.43612
 51
346.025421
  0
LINE
  5
288
100
AcDbEntity
  8
CLASS1
  6
CONTINUOUS
 62
     7
100
AcDbLine
 10
161.824959
 20
-141.021582
 30
0.0
 11
161.878038
 21
-140.761546
 31
0.0
  0
LINE
  5
289
100
AcDbEntity
  8
CLASS1
  6
CONTINUOUS
 62
     7
100
AcDbLine
 10
161.878038
 20
-140.761546
 30
0.0
 11
161.908817
 21
-140.497939
 31
0.0
  0
ARC
  5
28A
100
AcDbEntity
  8
CLASS1
  6
CONTINUOUS
 62
     7
100
AcDbCircle
 10
162.205911
 20
-140.519872
 30
0.0
 40
0.297902
100
AcDbArc
 50
358.561535
 51
175.777797
  0
LINE
  5
28B
100
AcDbEntity
  8
CLASS1
  6
CONTINUOUS
 62
     7
100
AcDbLine
 10
159.691527
 20
-139.38959
 30
0.0
 11
159.691518
 21
-140.964309
 31
0.0
  0
ARC
  5
28C
100
AcDbEntity
  8
CLASS1
  6
CONTINUOUS
 62
     7
100
AcDbCircle
 10
158.401088
 20
-141.403981
 30
0.0
 40
0.262493
100
AcDbArc
 50
101.095419
 51
273.659672
  0
ARC
  5
28D
100
AcDbEntity
  8
CLASS1
  6
CONTINUOUS
 62
     7
100
AcDbCircle
 10
160.475775
 20
-141.068491
 30
0.0
 40
0.245525
100
AcDbArc
 50
283.059764
 51
101.498168
  0
LINE
  5
28E
100
AcDbEntity
  8
CLASS1
  6
CONTINUOUS
 62
     7
100
AcDbLine
 10
165.069045
 20
-137.489621
 30
0.0
 11
164.749889
 21
-137.579918
 31
0.0
  0
LINE
  5
28F
100
AcDbEntity
  8
CLASS1
  6
CONTINUOUS
 62
     7
100
AcDbLine
 10
164.749889
 20
-137.579918
 30
0.0
 11
163.939545
 21
-138.031372
 31
0.0
  0
LINE
  5
290
100
AcDbEntity
  8
CLASS1
  6
CONTINUOUS
 62
     7
100
AcDbLine
 10
163.939545
 20
-138.031372
 30
0.0
 11
163.089481
 21
-138.402669
 31
0.0
  0
LINE
  5
291
100
AcDbEntity
  8
CLASS1
  6
CONTINUOUS
 62
     7
100
AcDbLine
 10
163.543515
 20
-138.852864
 30
0.0
 11
163.308705
 21
-138.954129
 31
0.0
  0
LINE
  5
292
100
AcDbEntity
  8
CLASS1
  6
CONTINUOUS
 62
     7
100
AcDbLine
 10
163.820772
 20
-138.723032
 30
0.0
 11
164.449179
 21
-138.384755
 31
0.0
  0
LINE
  5
293
100
AcDbEntity
  8
CLASS1
  6
CONTINUOUS
 62
     7
100
AcDbLine
 10
164.449179
 20
-138.384755
 30
0.0
 11
165.078681
 21
-137.989002
 31
0.0
  0
LINE
  5
294
100
AcDbEntity
  8
CLASS1
  6
CONTINUOUS
 62
     7
100
AcDbLine
 10
165.078681
 20
-137.989002
 30
0.0
 11
165.710341
 21
-138.379278
 31
0.0
  0
LINE
  5
295
100
AcDbEntity
  8
CLASS1
  6
CONTINUOUS
 62
     7
100
AcDbLine
 10
165.710341
 20
-138.379278
 30
0.0
 11
166.334626
 21
-138.723036
 31
0.0
  0
LINE
  5
296
100
AcDbEntity
  8
CLASS1
  6
CONTINUOUS
 62
     7
100
AcDbLine
 10
166.334626
 20
-138.723036
 30
0.0
 11
163.820772
 21
-138.723032
 31
0.0
  0
LINE
  5
297
100
AcDbEntity
  8
CLASS1
  6
CONTINUOUS
 62
     7
100
AcDbLine
 10
165.069045
 20
-137.489621
 30
0.0
 11
165.387263
 21
-137.583169
 31
0.0
  0
LINE
  5
298
100
AcDbEntity
  8
CLASS1
  6
CONTINUOUS
 62
     7
100
AcDbLine
 10
165.387263
 20
-137.583169
 30
0.0
 11
166.188782
 21
-138.033402
 31
0.0
  0
LINE
  5
299
100
AcDbEntity
  8
CLASS1
  6
CONTINUOUS
 62
     7
100
AcDbLine
 10
166.188782
 20
-138.033402
 30
0.0
 11
167.034847
 21
-138.393009
 31
0.0
  0
LINE
  5
29A
100
AcDbEntity
  8
CLASS1
  6
CONTINUOUS
 62
     7
100
AcDbLine
 10
166.598197
 20
-138.853637
 30
0.0
 11
166.80711
 21
-138.951366
 31
0.0
  0
ARC
  5
29B
100
AcDbEntity
  8
CLASS1
  6
CONTINUOUS
 62
     7
100
AcDbCircle
 10
163.195017
 20
-138.680019
 30
0.0
 40
0.296751
100
AcDbArc
 50
110.83262
 51
292.526328
  0
ARC
  5
29C
100
AcDbEntity
  8
CLASS1
  6
CONTINUOUS
 62
     7
100
AcDbCircle
 10
163.746434
 20
-138.946507
 30
0.0
 40
0.223484
100
AcDbArc
 50
155.227672
 51
270.000432
  0
ARC
  5
29D
100
AcDbEntity
  8
CLASS1
  6
CONTINUOUS
 62
     7
100
AcDbCircle
 10
166.394927
 20
-138.94651
 30
0.0
 40
0.223482
100
AcDbArc
 50
270.0
 51
24.555495
  0
ARC
  5
29E
100
AcDbEntity
  8
CLASS1
  6
CONTINUOUS
 62
     7
100
AcDbCircle
 10
166.932243
 20
-138.676782
 30
0.0
 40
0.301752
100
AcDbArc
 50
245.500393
 51
70.121491
  0
LINE
  5
29F
100
AcDbEntity
  8
CLASS1
  6
CONTINUOUS
 62
     7
100
AcDbLine
 10
163.746436
 20
-139.169992
 30
0.0
 11
166.394927
 21
-139.169992
 31
0.0
  0
LINE
  5
2A0
100
AcDbEntity
  8
CLASS1
  6
CONTINUOUS
 62
     7
100
AcDbLine
 10
163.194287
 20
-139.616956
 30
0.0
 11
166.936264
 21
-139.616956
 31
0.0
  0
LINE
  5
2A1
100
AcDbEntity
  8
CLASS1
  6
CONTINUOUS
 62
     7
100
AcDbLine
 10
163.194287
 20
-140.08812
 30
0.0
 11
164.003094
 21
-140.08812
 31
0.0
  0
LINE
  5
2A2
100
AcDbEntity
  8
CLASS1
  6
CONTINUOUS
 62
     7
100
AcDbLine
 10
162.954287
 20
-139.84812
 30
0.0
 11
162.954287
 21
-139.856956
 31
0.0
  0
LINE
  5
2A3
100
AcDbEntity
  8
CLASS1
  6
CONTINUOUS
 62
     7
100
AcDbLine
 10
167.176264
 20
-139.84812
 30
0.0
 11
167.176264
 21
-139.856956
 31
0.0
  0
ARC
  5
2A4
100
AcDbEntity
  8
CLASS1
  6
CONTINUOUS
 62
     7
100
AcDbCircle
 10
163.194287
 20
-139.856956
 30
0.0
 40
0.24
100
AcDbArc
 50
90.0
 51
180.0
  0
ARC
  5
2A5
100
AcDbEntity
  8
CLASS1
  6
CONTINUOUS
 62
     7
100
AcDbCircle
 10
163.194287
 20
-139.84812
 30
0.0
 40
0.24
100
AcDbArc
 50
180.0
 51
270.0
  0
ARC
  5
2A6
100
AcDbEntity
  8
CLASS1
  6
CONTINUOUS
 62
     7
100
AcDbCircle
 10
166.936264
 20
-139.856956
 30
0.0
 40
0.24
100
AcDbArc
 50
0.0
 51
90.0
  0
ARC
  5
2A7
100
AcDbEntity
  8
CLASS1
  6
CONTINUOUS
 62
     7
100
AcDbCircle
 10
166.936264
 20
-139.84812
 30
0.0
 40
0.24
100
AcDbArc
 50
270.0
 51
0.0
  0
LINE
  5
2A8
100
AcDbEntity
  8
CLASS1
  6
CONTINUOUS
 62
     7
100
AcDbLine
 10
164.722451
 20
-140.08812
 30
0.0
 11
166.936264
 21
-140.08812
 31
0.0
  0
LINE
  5
2A9
100
AcDbEntity
  8
CLASS1
  6
CONTINUOUS
 62
     7
100
AcDbLine
 10
164.003094
 20
-140.088128
 30
0.0
 11
163.728088
 21
-140.668469
 31
0.0
  0
LINE
  5
2AA
100
AcDbEntity
  8
CLASS1
  6
CONTINUOUS
 62
     7
100
AcDbLine
 10
163.728088
 20
-140.668469
 30
0.0
 11
163.388956
 21
-141.213825
 31
0.0
  0
LINE
  5
2AB
100
AcDbEntity
  8
CLASS1
  6
CONTINUOUS
 62
     7
100
AcDbLine
 10
164.722451
 20
-140.08812
 30
0.0
 11
164.49289
 21
-140.645766
 31
0.0
  0
LINE
  5
2AC
100
AcDbEntity
  8
CLASS1
  6
CONTINUOUS
 62
     7
100
AcDbLine
 10
164.49289
 20
-140.645766
 30
0.0
 11
164.211212
 21
-141.178978
 31
0.0
  0
LINE
  5
2AD
100
AcDbEntity
  8
CLASS1
  6
CONTINUOUS
 62
     7
100
AcDbLine
 10
164.211212
 20
-141.178978
 30
0.0
 11
165.195186
 21
-141.104155
 31
0.0
  0
LINE
  5
2AE
100
AcDbEntity
  8
CLASS1
  6
CONTINUOUS
 62
     7
100
AcDbLine
 10
165.195186
 20
-141.104155
 30
0.0
 11
166.175766
 21
-140.993405
 31
0.0
  0
LINE
  5
2AF
100
AcDbEntity
  8
CLASS1
  6
CONTINUOUS
 62
     7
100
AcDbLine
 10
166.175766
 20
-140.993405
 30
0.0
 11
165.93503
 21
-140.711252
 31
0.0
  0
LINE
  5
2B0
100
AcDbEntity
  8
CLASS1
  6
CONTINUOUS
 62
     7
100
AcDbLine
 10
166.382823
 20
-140.309509
 30
0.0
 11
166.787848
 21
-140.79842
 31
0.0
  0
LINE
  5
2B1
100
AcDbEntity
  8
CLASS1
  6
CONTINUOUS
 62
     7
100
AcDbLine
 10
166.787848
 20
-140.79842
 30
0.0
 11
167.153111
 21
-141.31771
 31
0.0
  0
LINE
  5
2B2
100
AcDbEntity
  8
CLASS1
  6
CONTINUOUS
 62
     7
100
AcDbLine
 10
166.647786
 20
-141.644159
 30
0.0
 11
166.489906
 21
-141.409648
 31
0.0
  0
LINE
  5
2B3
100
AcDbEntity
  8
CLASS1
  6
CONTINUOUS
 62
     7
100
AcDbLine
 10
166.489906
 20
-141.409648
 30
0.0
 11
164.856011
 21
-141.596086
 31
0.0
  0
LINE
  5
2B4
100
AcDbEntity
  8
CLASS1
  6
CONTINUOUS
 62
     7
100
AcDbLine
 10
164.856011
 20
-141.596086
 30
0.0
 11
163.215124
 21
-141.705002
 31
0.0
  0
LINE
  5
2B5
100
AcDbEntity
  8
CLASS1
  6
CONTINUOUS
 62
     7
100
AcDbLine
 10
163.388956
 20
-141.213825
 30
0.0
 11
163.165629
 21
-141.218953
 31
0.0
  0
LINE
  5
2B6
100
AcDbEntity
  8
CLASS1
  6
CONTINUOUS
 62
     7
100
AcDbLine
 10
163.165629
 20
-141.218953
 30
0.0
 11
163.014967
 21
-141.283867
 31
0.0
  0
LINE
  5
2B7
100
AcDbEntity
  8
CLASS1
  6
CONTINUOUS
 62
     7
100
AcDbLine
 10
163.014967
 20
-141.283867
 30
0.0
 11
162.952901
 21
-141.435725
 31
0.0
  0
ARC
  5
2B8
100
AcDbEntity
  8
CLASS1
  6
CONTINUOUS
 62
     7
100
AcDbCircle
 10
163.204697
 20
-141.452841
 30
0.0
 40
0.252377
100
AcDbArc
 50
176.111278
 51
272.367853
  0
ARC
  5
2B9
100
AcDbEntity
  8
CLASS1
  6
CONTINUOUS
 62
     7
100
AcDbCircle
 10
166.158927
 20
-140.51038
 30
0.0
 40
0.300797
100
AcDbArc
 50
41.897297
 51
221.897292
  0
ARC
  5
2BA
100
AcDbEntity
  8
CLASS1
  6
CONTINUOUS
 62
     7
100
AcDbCircle
 10
166.900449
 20
-141.480935
 30
0.0
 40
0.3008
100
AcDbArc
 50
212.863191
 51
32.863192
  0
LINE
  5
2BB
100
AcDbEntity
  8
CLASS1
  6
CONTINUOUS
 62
     7
100
AcDbLine
 10
167.943559
 20
-138.141923
 30
0.0
 11
168.401324
 21
-138.141923
 31
0.0
  0
LINE
  5
2BC
100
AcDbEntity
  8
CLASS1
  6
CONTINUOUS
 62
     7
100
AcDbLine
 10
167.943559
 20
-138.622643
 30
0.0
 11
168.95436
 21
-138.622643
 31
0.0
  0
LINE
  5
2BD
100
AcDbEntity
  8
CLASS1
  6
CONTINUOUS
 62
     7
100
AcDbLine
 10
168.401324
 20
-138.141923
 30
0.0
 11
168.401324
 21
-137.692512
 31
0.0
  0
LINE
  5
2BE
100
AcDbEntity
  8
CLASS1
  6
CONTINUOUS
 62
     7
100
AcDbLine
 10
169.05116
 20
-138.141923
 30
0.0
 11
169.05116
 21
-137.692512
 31
0.0
  0
LINE
  5
2BF
100
AcDbEntity
  8
CLASS1
  6
CONTINUOUS
 62
     7
100
AcDbLine
 10
168.631324
 20
-137.462512
 30
0.0
 11
168.82116
 21
-137.462512
 31
0.0
  0
LINE
  5
2C0
100
AcDbEntity
  8
CLASS1
  6
CONTINUOUS
 62
     7
100
AcDbLine
 10
167.713559
 20
-138.371923
 30
0.0
 11
167.713559
 21
-138.392643
 31
0.0
  0
ARC
  5
2C1
100
AcDbEntity
  8
CLASS1
  6
CONTINUOUS
 62
     7
100
AcDbCircle
 10
168.631324
 20
-137.692512
 30
0.0
 40
0.23
100
AcDbArc
 50
90.0
 51
180.0
  0
ARC
  5
2C2
100
AcDbEntity
  8
CLASS1
  6
CONTINUOUS
 62
     7
100
AcDbCircle
 10
168.82116
 20
-137.692512
 30
0.0
 40
0.23
100
AcDbArc
 50
0.0
 51
90.0
  0
ARC
  5
2C3
100
AcDbEntity
  8
CLASS1
  6
CONTINUOUS
 62
     7
100
AcDbCircle
 10
167.943559
 20
-138.371923
 30
0.0
 40
0.23
100
AcDbArc
 50
90.0
 51
180.0
  0
ARC
  5
2C4
100
AcDbEntity
  8
CLASS1
  6
CONTINUOUS
 62
     7
100
AcDbCircle
 10
167.943559
 20
-138.392643
 30
0.0
 40
0.23
100
AcDbArc
 50
180.0
 51
270.0
  0
LINE
  5
2C5
100
AcDbEntity
  8
CLASS1
  6
CONTINUOUS
 62
     7
100
AcDbLine
 10
169.05116
 20
-138.141923
 30
0.0
 11
169.305941
 21
-138.141921
 31
0.0
  0
ARC
  5
2C6
100
AcDbEntity
  8
CLASS1
  6
CONTINUOUS
 62
     7
100
AcDbCircle
 10
169.305941
 20
-138.42811
 30
0.0
 40
0.286189
100
AcDbArc
 50
360.0
 51
90.0
  0
ARC
  5
2C7
100
AcDbEntity
  8
CLASS1
  6
CONTINUOUS
 62
     7
100
AcDbCircle
 10
169.126228
 20
-138.470217
 30
0.0
 40
0.467801
100
AcDbArc
 50
333.543312
 51
5.164133
  0
LINE
  5
2C8
100
AcDbEntity
  8
CLASS1
  6
CONTINUOUS
 62
     7
100
AcDbLine
 10
169.545037
 20
-138.678632
 30
0.0
 11
169.343259
 21
-139.028495
 31
0.0
  0
LINE
  5
2C9
100
AcDbEntity
  8
CLASS1
  6
CONTINUOUS
 62
     7
100
AcDbLine
 10
169.343259
 20
-139.028495
 30
0.0
 11
169.10577
 21
-139.355172
 31
0.0
  0
LINE
  5
2CA
100
AcDbEntity
  8
CLASS1
  6
CONTINUOUS
 62
     7
100
AcDbLine
 10
169.10577
 20
-139.355172
 30
0.0
 11
169.559402
 21
-139.722469
 31
0.0
  0
LINE
  5
2CB
100
AcDbEntity
  8
CLASS1
  6
CONTINUOUS
 62
     7
100
AcDbLine
 10
169.186378
 20
-140.070243
 30
0.0
 11
169.05116
 21
-139.937546
 31
0.0
  0
LINE
  5
2CC
100
AcDbEntity
  8
CLASS1
  6
CONTINUOUS
 62
     7
100
AcDbLine
 10
168.401324
 20
-140.027444
 30
0.0
 11
168.083429
 21
-140.237916
 31
0.0
  0
LINE
  5
2CD
100
AcDbEntity
  8
CLASS1
  6
CONTINUOUS
 62
     7
100
AcDbLine
 10
167.795115
 20
-139.752792
 30
0.0
 11
168.441515
 21
-139.256213
 31
0.0
  0
LINE
  5
2CE
100
AcDbEntity
  8
CLASS1
  6
CONTINUOUS
 62
     7
100
AcDbLine
 10
168.441515
 20
-139.256213
 30
0.0
 11
168.95436
 21
-138.622643
 31
0.0
  0
ARC
  5
2CF
100
AcDbEntity
  8
CLASS1
  6
CONTINUOUS
 62
     7
100
AcDbCircle
 10
167.939272
 20
-139.995354
 30
0.0
 40
0.282166
100
AcDbArc
 50
120.72343
 51
300.723434
  0
ARC
  5
2D0
100
AcDbEntity
  8
CLASS1
  6
CONTINUOUS
 62
     7
100
AcDbCircle
 10
169.356462
 20
-139.896932
 30
0.0
 40
0.242827
100
AcDbArc
 50
225.538478
 51
316.99411
  0
ARC
  5
2D1
100
AcDbEntity
  8
CLASS1
  6
CONTINUOUS
 62
     7
100
AcDbCircle
 10
169.421615
 20
-139.883183
 30
0.0
 40
0.211694
100
AcDbArc
 50
0.38756
 51
49.391989
  0
LINE
  5
2D2
100
AcDbEntity
  8
CLASS1
  6
CONTINUOUS
 62
     7
100
AcDbLine
 10
169.534037
 20
-140.062558
 30
0.0
 11
169.601998
 21
-139.98484
 31
0.0
  0
ARC
  5
2D3
100
AcDbEntity
  8
CLASS1
  6
CONTINUOUS
 62
     7
100
AcDbCircle
 10
169.433884
 20
-139.87749
 30
0.0
 40
0.199465
100
AcDbArc
 50
327.439597
 51
358.776057
  0
LINE
  5
2D4
100
AcDbEntity
  8
CLASS1
  6
CONTINUOUS
 62
     7
100
AcDbLine
 10
168.401324
 20
-140.027444
 30
0.0
 11
168.401332
 21
-141.581479
 31
0.0
  0
LINE
  5
2D5
100
AcDbEntity
  8
CLASS1
  6
CONTINUOUS
 62
     7
100
AcDbLine
 10
169.051155
 20
-141.581479
 30
0.0
 11
169.05116
 21
-139.937546
 31
0.0
  0
LINE
  5
2D6
100
AcDbEntity
  8
CLASS1
  6
CONTINUOUS
 62
     7
100
AcDbLine
 10
168.401332
 20
-141.581479
 30
0.0
 11
168.467374
 21
-141.740919
 31
0.0
  0
LINE
  5
2D7
100
AcDbEntity
  8
CLASS1
  6
CONTINUOUS
 62
     7
100
AcDbLine
 10
168.467374
 20
-141.740919
 30
0.0
 11
168.626814
 21
-141.806961
 31
0.0
  0
LINE
  5
2D8
100
AcDbEntity
  8
CLASS1
  6
CONTINUOUS
 62
     7
100
AcDbLine
 10
168.626814
 20
-141.806961
 30
0.0
 11
168.825672
 21
-141.806961
 31
0.0
  0
ARC
  5
2D9
100
AcDbEntity
  8
CLASS1
  6
CONTINUOUS
 62
     7
100
AcDbCircle
 10
168.825672
 20
-141.581479
 30
0.0
 40
0.225482
100
AcDbArc
 50
270.0
 51
360.0
  0
LINE
  5
2DA
100
AcDbEntity
  8
CLASS1
  6
CONTINUOUS
 62
     7
100
AcDbLine
 10
171.072659
 20
-138.630413
 30
0.0
 11
171.663991
 21
-138.630413
 31
0.0
  0
LINE
  5
2DB
100
AcDbEntity
  8
CLASS1
  6
CONTINUOUS
 62
     7
100
AcDbLine
 10
169.793446
 20
-139.155356
 30
0.0
 11
170.374717
 21
-139.155356
 31
0.0
  0
LINE
  5
2DC
100
AcDbEntity
  8
CLASS1
  6
CONTINUOUS
 62
     7
100
AcDbLine
 10
169.515752
 20
-141.170276
 30
0.0
 11
170.374717
 21
-141.170276
 31
0.0
  0
LINE
  5
2DD
100
AcDbEntity
  8
CLASS1
  6
CONTINUOUS
 62
     7
100
AcDbLine
 10
169.515752
 20
-141.7
 30
0.0
 11
171.77
 21
-141.7
 31
0.0
  0
LINE
  5
2DE
100
AcDbEntity
  8
CLASS1
  6
CONTINUOUS
 62
     7
100
AcDbLine
 10
171.893991
 20
-138.925356
 30
0.0
 11
171.893991
 21
-138.860413
 31
0.0
  0
LINE
  5
2DF
100
AcDbEntity
  8
CLASS1
  6
CONTINUOUS
 62
     7
100
AcDbLine
 10
172.0
 20
-141.47
 30
0.0
 11
172.0
 21
-141.400276
 31
0.0
  0
LINE
  5
2E0
100
AcDbEntity
  8
CLASS1
  6
CONTINUOUS
 62
     7
100
AcDbLine
 10
169.285752
 20
-141.47
 30
0.0
 11
169.285752
 21
-141.400276
 31
0.0
  0
LINE
  5
2E1
100
AcDbEntity
  8
CLASS1
  6
CONTINUOUS
 62
     7
100
AcDbLine
 10
170.604717
 20
-137.462512
 30
0.0
 11
170.842659
 21
-137.462512
 31
0.0
  0
LINE
  5
2E2
100
AcDbEntity
  8
CLASS1
  6
CONTINUOUS
 62
     7
100
AcDbLine
 10
170.374717
 20
-141.170276
 30
0.0
 11
170.374717
 21
-139.155356
 31
0.0
  0
LINE
  5
2E3
100
AcDbEntity
  8
CLASS1
  6
CONTINUOUS
 62
     7
100
AcDbLine
 10
171.072659
 20
-141.170276
 30
0.0
 11
171.072659
 21
-139.155356
 31
0.0
  0
ARC
  5
2E4
100
AcDbEntity
  8
CLASS1
  6
CONTINUOUS
 62
     7
100
AcDbCircle
 10
170.604717
 20
-137.692512
 30
0.0
 40
0.23
100
AcDbArc
 50
90.0
 51
180.0
  0
ARC
  5
2E5
100
AcDbEntity
  8
CLASS1
  6
CONTINUOUS
 62
     7
100
AcDbCircle
 10
170.842659
 20
-137.692512
 30
0.0
 40
0.23
100
AcDbArc
 50
0.0
 51
90.0
  0
ARC
  5
2E6
100
AcDbEntity
  8
CLASS1
  6
CONTINUOUS
 62
     7
100
AcDbCircle
 10
171.663991
 20
-138.860413
 30
0.0
 40
0.23
100
AcDbArc
 50
0.0
 51
90.0
  0
ARC
  5
2E7
100
AcDbEntity
  8
CLASS1
  6
CONTINUOUS
 62
     7
100
AcDbCircle
 10
171.663991
 20
-138.925356
 30
0.0
 40
0.23
100
AcDbArc
 50
270.0
 51
0.0
  0
ARC
  5
2E8
100
AcDbEntity
  8
CLASS1
  6
CONTINUOUS
 62
     7
100
AcDbCircle
 10
169.793446
 20
-138.925356
 30
0.0
 40
0.23
100
AcDbArc
 50
180.0
 51
270.0
  0
LINE
  5
2E9
100
AcDbEntity
  8
CLASS1
  6
CONTINUOUS
 62
     7
100
AcDbLine
 10
169.563446
 20
-138.8559
 30
0.0
 11
169.629488
 21
-138.69646
 31
0.0
  0
LINE
  5
2EA
100
AcDbEntity
  8
CLASS1
  6
CONTINUOUS
 62
     7
100
AcDbLine
 10
169.629488
 20
-138.69646
 30
0.0
 11
169.788928
 21
-138.630418
 31
0.0
  0
LINE
  5
2EB
100
AcDbEntity
  8
CLASS1
  6
CONTINUOUS
 62
     7
100
AcDbLine
 10
169.563446
 20
-138.8559
 30
0.0
 11
169.563446
 21
-138.925356
 31
0.0
  0
LINE
  5
2EC
100
AcDbEntity
  8
CLASS1
  6
CONTINUOUS
 62
     7
100
AcDbLine
 10
169.788928
 20
-138.630418
 30
0.0
 11
170.374717
 21
-138.630413
 31
0.0
  0
LINE
  5
2ED
100
AcDbEntity
  8
CLASS1
  6
CONTINUOUS
 62
     7
100
AcDbLine
 10
170.374717
 20
-138.630413
 30
0.0
 11
170.374717
 21
-137.692512
 31
0.0
  0
LINE
  5
2EE
100
AcDbEntity
  8
CLASS1
  6
CONTINUOUS
 62
     7
100
AcDbLine
 10
171.072659
 20
-138.630413
 30
0.0
 11
171.072659
 21
-137.692512
 31
0.0
  0
LINE
  5
2EF
100
AcDbEntity
  8
CLASS1
  6
CONTINUOUS
 62
     7
100
AcDbLine
 10
171.072659
 20
-139.155356
 30
0.0
 11
171.663991
 21
-139.155356
 31
0.0
  0
ARC
  5
2F0
100
AcDbEntity
  8
CLASS1
  6
CONTINUOUS
 62
     7
100
AcDbCircle
 10
169.515752
 20
-141.400276
 30
0.0
 40
0.23
100
AcDbArc
 50
90.0
 51
180.0
  0
ARC
  5
2F1
100
AcDbEntity
  8
CLASS1
  6
CONTINUOUS
 62
     7
100
AcDbCircle
 10
169.515752
 20
-141.47
 30
0.0
 40
0.23
100
AcDbArc
 50
180.0
 51
270.0
  0
ARC
  5
2F2
100
AcDbEntity
  8
CLASS1
  6
CONTINUOUS
 62
     7
100
AcDbCircle
 10
171.77
 20
-141.400276
 30
0.0
 40
0.23
100
AcDbArc
 50
0.0
 51
90.0
  0
ARC
  5
2F3
100
AcDbEntity
  8
CLASS1
  6
CONTINUOUS
 62
     7
100
AcDbCircle
 10
171.77
 20
-141.47
 30
0.0
 40
0.23
100
AcDbArc
 50
270.0
 51
0.0
  0
LINE
  5
2F4
100
AcDbEntity
  8
CLASS1
  6
CONTINUOUS
 62
     7
100
AcDbLine
 10
171.072659
 20
-141.170276
 30
0.0
 11
171.77
 21
-141.170276
 31
0.0
  0
INSERT
  5
3B0
100
AcDbEntity
  8
CLASS1
  6
ByBlock
 62
     7
100
AcDbBlockReference
  2
*X2
 10
0.0
 20
0.0
 30
0.0
  0
INSERT
  5
41A
100
AcDbEntity
  8
CLASS1
  6
ByBlock
 62
     7
100
AcDbBlockReference
  2
*X3
 10
0.0
 20
0.0
 30
0.0
  0
INSERT
  5
4A2
100
AcDbEntity
  8
CLASS1
  6
ByBlock
 62
     7
100
AcDbBlockReference
  2
*X4
 10
0.0
 20
0.0
 30
0.0
  0
INSERT
  5
4F3
100
AcDbEntity
  8
CLASS1
  6
ByBlock
 62
     7
100
AcDbBlockReference
  2
*X5
 10
0.0
 20
0.0
 30
0.0
  0
INSERT
  5
58C
100
AcDbEntity
  8
CLASS1
  6
ByBlock
 62
     7
100
AcDbBlockReference
  2
*X6
 10
0.0
 20
0.0
 30
0.0
  0
INSERT
  5
5D9
100
AcDbEntity
  8
CLASS1
  6
ByBlock
 62
     7
100
AcDbBlockReference
  2
*X7
 10
0.0
 20
0.0
 30
0.0
  0
INSERT
  5
626
100
AcDbEntity
  8
CLASS1
  6
ByBlock
 62
     7
100
AcDbBlockReference
  2
*X8
 10
0.0
 20
0.0
 30
0.0
  0
INSERT
  5
653
100
AcDbEntity
  8
CLASS1
  6
ByBlock
 62
     7
100
AcDbBlockReference
  2
*X9
 10
0.0
 20
0.0
 30
0.0
  0
INSERT
  5
69B
100
AcDbEntity
  8
CLASS1
  6
ByBlock
 62
     7
100
AcDbBlockReference
  2
*X10
 10
0.0
 20
0.0
 30
0.0
  0
INSERT
  5
6D3
100
AcDbEntity
  8
CLASS1
  6
ByBlock
 62
     7
100
AcDbBlockReference
  2
*X11
 10
0.0
 20
0.0
 30
0.0
  0
INSERT
  5
700
100
AcDbEntity
  8
CLASS1
  6
ByBlock
 62
     7
100
AcDbBlockReference
  2
*X12
 10
0.0
 20
0.0
 30
0.0
  0
INSERT
  5
730
100
AcDbEntity
  8
CLASS1
  6
ByBlock
 62
     7
100
AcDbBlockReference
  2
*X13
 10
0.0
 20
0.0
 30
0.0
  0
INSERT
  5
76B
100
AcDbEntity
  8
CLASS1
  6
ByBlock
 62
     7
100
AcDbBlockReference
  2
*X14
 10
0.0
 20
0.0
 30
0.0
  0
TEXT
  5
76C
100
AcDbEntity
  8
CLASS1
  6
CONTINUOUS
 62
     7
100
AcDbText
 10
123.0
 20
-119.25
 30
0.0
 40
3.0
  1
Scale
 50
-90.0
 41
0.555556
 72
     1
 11
124.5
 21
-123.0
 31
0.0
100
AcDbText
 73
     2
  0
CIRCLE
  5
76D
100
AcDbEntity
  8
CLASS1
  6
CONTINUOUS
 62
     7
100
AcDbCircle
 10
-189.0
 20
-139.119333
 30
0.0
 40
1.5
  0
TEXT
  5
76E
100
AcDbEntity
  8
CLASS1
  6
CONTINUOUS
 62
     7
100
AcDbText
 10
-184.804954
 20
-140.369333
 30
0.0
 40
2.5
  1
NITTO KOGYO CORPORATION
 41
1.068111
 11
-184.804954
 21
-139.119333
 31
0.0
100
AcDbText
 73
     2
  0
TEXT
  5
76F
100
AcDbEntity
  8
CLASS1
  6
CONTINUOUS
 62
     7
100
AcDbText
 10
-189.666666
 20
-140.119333
 30
0.0
 40
2.0
  1
C
 11
-189.666666
 21
-139.119333
 31
0.0
100
AcDbText
 73
     2
  0
TEXT
  5
770
100
AcDbEntity
  8
CLASS1
  6
CONTINUOUS
 62
     7
100
AcDbText
 10
47.833333
 20
-107.5
 30
0.0
 40
3.0
  1
Body
 41
0.666667
 11
47.833333
 21
-106.0
 31
0.0
100
AcDbText
 73
     2
  0
TEXT
  5
771
100
AcDbEntity
  8
GV
  6
CONTINUOUS
 62
     7
100
AcDbText
 10
-32.806702
 20
46.0
 30
0.0
 40
3.0
  1
(Usable depth)
 41
0.525469
 11
-32.806702
 21
47.5
 31
0.0
100
AcDbText
 73
     2
  0
LINE
  5
772
100
AcDbEntity
  8
GV
  6
CONTINUOUS
 62
     7
100
AcDbLine
 10
-58.96
 20
50.0
 30
0.0
 11
-37.76
 21
50.0
 31
0.0
  0
LINE
  5
773
100
AcDbEntity
  8
GV
  6
CONTINUOUS
 62
     7
100
AcDbLine
 10
-37.76
 20
50.0
 30
0.0
 11
-26.250001
 21
50.0
 31
0.0
  0
LINE
  5
774
100
AcDbEntity
  8
GV
  6
CONTINUOUS
 62
     7
100
AcDbLine
 10
-58.96
 20
46.0
 30
0.0
 11
-58.96
 21
52.28
 31
0.0
  0
LINE
  5
775
100
AcDbEntity
  8
GV
  6
CONTINUOUS
 62
     7
100
AcDbLine
 10
-37.76
 20
46.0
 30
0.0
 11
-37.76
 21
52.28
 31
0.0
  0
LINE
  5
776
100
AcDbEntity
  8
GV
  6
CONTINUOUS
 62
     7
100
AcDbLine
 10
-58.96
 20
50.0
 30
0.0
 11
-65.31
 21
50.0
 31
0.0
  0
LINE
  5
777
100
AcDbEntity
  8
GV
  6
CONTINUOUS
 62
     7
100
AcDbLine
 10
-37.76
 20
50.0
 30
0.0
 11
-31.41
 21
50.0
 31
0.0
  0
INSERT
  5
778
100
AcDbEntity
  8
GV
  6
CONTINUOUS
 62
     7
100
AcDbBlockReference
  2
_OPEN30
 10
-58.96
 20
50.0
 30
0.0
 41
2.216
 42
2.216
 43
2.216
  0
INSERT
  5
779
100
AcDbEntity
  8
GV
  6
CONTINUOUS
 62
     7
100
AcDbBlockReference
  2
_OPEN30
 10
-37.76
 20
50.0
 30
0.0
 41
2.216
 42
2.216
 43
2.216
 50
180.0
  0
TEXT
  5
77B
100
AcDbEntity
  8
GV
  6
CONTINUOUS
 62
     7
100
AcDbText
 10
-33.333334
 20
51.0
 30
0.0
 40
2.5
  1
106
  7
MX_DIMTXSTY_2
 11
-33.333334
 21
52.25
 31
0.0
100
AcDbText
 73
     2
  0
LINE
  5
77C
100
AcDbEntity
  8
GV
  6
CONTINUOUS
 62
     7
100
AcDbLine
 10
-48.1
 20
32.0
 30
0.0
 11
-60.0
 21
32.0
 31
0.0
  0
LINE
  5
77D
100
AcDbEntity
  8
GV
  6
CONTINUOUS
 62
     7
100
AcDbLine
 10
-60.0
 20
32.0
 30
0.0
 11
-70.0
 21
32.0
 31
0.0
  0
LINE
  5
77E
100
AcDbEntity
  8
GV
  6
CONTINUOUS
 62
     7
100
AcDbLine
 10
-48.1
 20
39.0
 30
0.0
 11
-48.1
 21
29.72
 31
0.0
  0
LINE
  5
77F
100
AcDbEntity
  8
GV
  6
CONTINUOUS
 62
     7
100
AcDbLine
 10
-60.0
 20
39.0
 30
0.0
 11
-60.0
 21
29.72
 31
0.0
  0
INSERT
  5
780
100
AcDbEntity
  8
GV
  6
CONTINUOUS
 62
     7
100
AcDbBlockReference
  2
_OPEN30
 10
-48.1
 20
32.0
 30
0.0
 41
2.77
 42
2.77
 43
2.77
  0
INSERT
  5
781
100
AcDbEntity
  8
GV
  6
CONTINUOUS
 62
     7
100
AcDbBlockReference
  2
_OPEN30
 10
-60.0
 20
32.0
 30
0.0
 41
2.77
 42
2.77
 43
2.77
 50
180.0
  0
TEXT
  5
782
100
AcDbEntity
  8
GV
  6
CONTINUOUS
 62
     7
100
AcDbText
 10
-69.583333
 20
33.0
 30
0.0
 40
2.5
  1
59.5
  7
MX_DIMTXSTY_2
 11
-69.583333
 21
34.25
 31
0.0
100
AcDbText
 73
     2
  0
LINE
  5
783
100
AcDbEntity
  8
GV
  6
CONTINUOUS
 62
     7
100
AcDbLine
 10
-36.0
 20
26.0
 30
0.0
 11
-60.0
 21
26.0
 31
0.0
  0
LINE
  5
784
100
AcDbEntity
  8
GV
  6
CONTINUOUS
 62
     7
100
AcDbLine
 10
-36.0
 20
39.0
 30
0.0
 11
-36.0
 21
23.72
 31
0.0
  0
LINE
  5
785
100
AcDbEntity
  8
GV
  6
CONTINUOUS
 62
     7
100
AcDbLine
 10
-60.0
 20
39.0
 30
0.0
 11
-60.0
 21
23.72
 31
0.0
  0
INSERT
  5
786
100
AcDbEntity
  8
GV
  6
CONTINUOUS
 62
     7
100
AcDbBlockReference
  2
_OPEN30
 10
-36.0
 20
26.0
 30
0.0
 41
2.77
 42
2.77
 43
2.77
  0
INSERT
  5
787
100
AcDbEntity
  8
GV
  6
CONTINUOUS
 62
     7
100
AcDbBlockReference
  2
_OPEN30
 10
-60.0
 20
26.0
 30
0.0
 41
2.77
 42
2.77
 43
2.77
 50
180.0
  0
TEXT
  5
788
100
AcDbEntity
  8
GV
  6
CONTINUOUS
 62
     7
100
AcDbText
 10
-52.583333
 20
27.0
 30
0.0
 40
2.5
  1
120
  7
MX_DIMTXSTY_2
 11
-52.583333
 21
28.25
 31
0.0
100
AcDbText
 73
     2
  0
POLYLINE
  5
789
100
AcDbEntity
  8
GV
  6
CONTINUOUS
 62
     7
100
AcDb2dPolyline
 66
     1
 10
0.0
 20
0.0
 30
0.0
  0
VERTEX
  5
84E
100
AcDbEntity
  8
GV
  6
CONTINUOUS
 62
     7
100
AcDbVertex
100
AcDb2dVertex
 10
-67.071232
 20
87.070904
 30
0.0
  0
VERTEX
  5
84F
100
AcDbEntity
  8
GV
  6
CONTINUOUS
 62
     7
100
AcDbVertex
100
AcDb2dVertex
 10
-72.071228
 20
95.73116
 30
0.0
  0
VERTEX
  5
850
100
AcDbEntity
  8
GV
  6
CONTINUOUS
 62
     7
100
AcDbVertex
100
AcDb2dVertex
 10
-77.271228
 20
95.73116
 30
0.0
  0
SEQEND
  5
851
100
AcDbEntity
  8
GV
  6
CONTINUOUS
 62
     7
  0
INSERT
  5
78A
100
AcDbEntity
  8
GV
  6
CONTINUOUS
 62
     7
100
AcDbBlockReference
  2
_OPEN30
 10
-67.071232
 20
87.070904
 30
0.0
 41
2.77
 42
2.77
 43
2.77
 50
299.999975
  0
TEXT
  5
78B
100
AcDbEntity
  8
GV
  6
CONTINUOUS
 62
     7
100
AcDbText
 10
-76.715672
 20
97.33116
 30
0.0
 40
4.0
  1
Ａ
 41
0.833333
 11
-76.715672
 21
99.33116
 31
0.0
100
AcDbText
 73
     2
  0
CIRCLE
  5
78C
100
AcDbEntity
  8
GV
  6
CONTINUOUS
 62
     7
100
AcDbCircle
 10
-60.0
 20
80.0
 30
0.0
 40
10.0
  0
ARC
  5
78D
100
AcDbEntity
  8
GV
  6
CONTINUOUS
 62
     7
100
AcDbCircle
 10
-58.66
 20
41.2
 30
0.0
 40
2.073861
100
AcDbArc
 50
150.220851
 51
209.779149
  0
LINE
  5
78E
100
AcDbEntity
  8
GV
  6
CONTINUOUS
 62
     7
100
AcDbLine
 10
-60.46
 20
40.17
 30
0.0
 11
-60.46
 21
42.23
 31
0.0
  0
LINE
  5
78F
100
AcDbEntity
  8
GV
  6
CONTINUOUS
 62
     7
100
AcDbLine
 10
-60.16
 20
40.17
 30
0.0
 11
-60.46
 21
40.17
 31
0.0
  0
LINE
  5
790
100
AcDbEntity
  8
GV
  6
CONTINUOUS
 62
     7
100
AcDbLine
 10
-60.46
 20
42.23
 30
0.0
 11
-60.16
 21
42.23
 31
0.0
  0
LINE
  5
791
100
AcDbEntity
  8
GV
  6
CONTINUOUS
 62
     7
100
AcDbLine
 10
-60.16
 20
40.0
 30
0.0
 11
-60.16
 21
42.4
 31
0.0
  0
LINE
  5
792
100
AcDbEntity
  8
GV
  6
CONTINUOUS
 62
     7
100
AcDbLine
 10
-60.0
 20
40.0
 30
0.0
 11
-60.16
 21
40.0
 31
0.0
  0
LINE
  5
793
100
AcDbEntity
  8
GV
  6
CONTINUOUS
 62
     7
100
AcDbLine
 10
-60.16
 20
42.4
 30
0.0
 11
-60.0
 21
42.4
 31
0.0
  0
ARC
  5
794
100
AcDbEntity
  8
GV
  6
CONTINUOUS
 62
     7
100
AcDbCircle
 10
-58.66
 20
78.8
 30
0.0
 40
2.073861
100
AcDbArc
 50
150.220851
 51
209.779149
  0
LINE
  5
795
100
AcDbEntity
  8
GV
  6
CONTINUOUS
 62
     7
100
AcDbLine
 10
-60.46
 20
77.77
 30
0.0
 11
-60.46
 21
79.83
 31
0.0
  0
LINE
  5
796
100
AcDbEntity
  8
GV
  6
CONTINUOUS
 62
     7
100
AcDbLine
 10
-60.16
 20
77.77
 30
0.0
 11
-60.46
 21
77.77
 31
0.0
  0
LINE
  5
797
100
AcDbEntity
  8
GV
  6
CONTINUOUS
 62
     7
100
AcDbLine
 10
-60.46
 20
79.83
 30
0.0
 11
-60.16
 21
79.83
 31
0.0
  0
LINE
  5
798
100
AcDbEntity
  8
GV
  6
CONTINUOUS
 62
     7
100
AcDbLine
 10
-60.16
 20
77.6
 30
0.0
 11
-60.16
 21
80.0
 31
0.0
  0
LINE
  5
799
100
AcDbEntity
  8
GV
  6
CONTINUOUS
 62
     7
100
AcDbLine
 10
-60.0
 20
77.6
 30
0.0
 11
-60.16
 21
77.6
 31
0.0
  0
LINE
  5
79A
100
AcDbEntity
  8
GV
  6
CONTINUOUS
 62
     7
100
AcDbLine
 10
-60.16
 20
80.0
 30
0.0
 11
-60.0
 21
80.0
 31
0.0
  0
LINE
  5
79B
100
AcDbEntity
  8
GV
  6
CONTINUOUS
 62
     7
100
AcDbLine
 10
-48.0
 20
80.0
 30
0.0
 11
-48.0
 21
40.0
 31
0.0
  0
LINE
  5
79C
100
AcDbEntity
  8
GV
  6
CONTINUOUS
 62
     7
100
AcDbLine
 10
-48.1
 20
80.0
 30
0.0
 11
-48.1
 21
40.0
 31
0.0
  0
LINE
  5
79D
100
AcDbEntity
  8
GV
  6
CONTINUOUS
 62
     7
100
AcDbLine
 10
-60.0
 20
40.0
 30
0.0
 11
-60.0
 21
80.0
 31
0.0
  0
LINE
  5
79E
100
AcDbEntity
  8
GV
  6
CONTINUOUS
 62
     7
100
AcDbLine
 10
-36.0
 20
40.0
 30
0.0
 11
-60.0
 21
40.0
 31
0.0
  0
LINE
  5
79F
100
AcDbEntity
  8
GV
  6
CONTINUOUS
 62
     7
100
AcDbLine
 10
-36.0
 20
80.0
 30
0.0
 11
-36.0
 21
40.0
 31
0.0
  0
LINE
  5
7A0
100
AcDbEntity
  8
GV
  6
CONTINUOUS
 62
     7
100
AcDbLine
 10
-60.0
 20
80.0
 30
0.0
 11
-36.0
 21
80.0
 31
0.0
  0
ARC
  5
7A1
100
AcDbEntity
  8
GV
  6
CONTINUOUS
 62
     7
100
AcDbCircle
 10
-120.0
 20
8.66
 30
0.0
 40
2.073861
100
AcDbArc
 50
60.220851
 51
119.779149
  0
LINE
  5
7A2
100
AcDbEntity
  8
GV
  6
CONTINUOUS
 62
     7
100
AcDbLine
 10
-121.03
 20
10.46
 30
0.0
 11
-121.03
 21
10.16
 31
0.0
  0
LINE
  5
7A3
100
AcDbEntity
  8
GV
  6
CONTINUOUS
 62
     7
100
AcDbLine
 10
-118.97
 20
10.46
 30
0.0
 11
-118.97
 21
10.16
 31
0.0
  0
LINE
  5
7A4
100
AcDbEntity
  8
GV
  6
CONTINUOUS
 62
     7
100
AcDbLine
 10
-121.03
 20
10.46
 30
0.0
 11
-118.97
 21
10.46
 31
0.0
  0
LINE
  5
7A5
100
AcDbEntity
  8
GV
  6
CONTINUOUS
 62
     7
100
AcDbLine
 10
-121.2
 20
10.16
 30
0.0
 11
-121.2
 21
10.0
 31
0.0
  0
LINE
  5
7A6
100
AcDbEntity
  8
GV
  6
CONTINUOUS
 62
     7
100
AcDbLine
 10
-118.8
 20
10.16
 30
0.0
 11
-118.8
 21
10.0
 31
0.0
  0
LINE
  5
7A7
100
AcDbEntity
  8
GV
  6
CONTINUOUS
 62
     7
100
AcDbLine
 10
-121.2
 20
10.16
 30
0.0
 11
-118.8
 21
10.16
 31
0.0
  0
LINE
  5
7A8
100
AcDbEntity
  8
GV
  6
CONTINUOUS
 62
     7
100
AcDbLine
 10
-140.0
 20
-14.0
 30
0.0
 11
-140.0
 21
10.0
 31
0.0
  0
LINE
  5
7A9
100
AcDbEntity
  8
GV
  6
CONTINUOUS
 62
     7
100
AcDbLine
 10
-100.0
 20
-14.0
 30
0.0
 11
-140.0
 21
-14.0
 31
0.0
  0
LINE
  5
7AA
100
AcDbEntity
  8
GV
  6
CONTINUOUS
 62
     7
100
AcDbLine
 10
-100.0
 20
10.0
 30
0.0
 11
-100.0
 21
-14.0
 31
0.0
  0
LINE
  5
7AB
100
AcDbEntity
  8
GV
  6
CONTINUOUS
 62
     7
100
AcDbLine
 10
-140.0
 20
10.0
 30
0.0
 11
-100.0
 21
10.0
 31
0.0
  0
LINE
  5
7AC
100
AcDbEntity
  8
GV
  6
CONTINUOUS
 62
     7
100
AcDbLine
 10
-100.0
 20
26.0
 30
0.0
 11
-140.0
 21
26.0
 31
0.0
  0
LINE
  5
7AD
100
AcDbEntity
  8
GV
  6
CONTINUOUS
 62
     7
100
AcDbLine
 10
-100.0
 20
39.0
 30
0.0
 11
-100.0
 21
23.72
 31
0.0
  0
LINE
  5
7AE
100
AcDbEntity
  8
GV
  6
CONTINUOUS
 62
     7
100
AcDbLine
 10
-140.0
 20
39.0
 30
0.0
 11
-140.0
 21
23.72
 31
0.0
  0
INSERT
  5
7AF
100
AcDbEntity
  8
GV
  6
CONTINUOUS
 62
     7
100
AcDbBlockReference
  2
_OPEN30
 10
-100.0
 20
26.0
 30
0.0
 41
2.77
 42
2.77
 43
2.77
  0
INSERT
  5
7B0
100
AcDbEntity
  8
GV
  6
CONTINUOUS
 62
     7
100
AcDbBlockReference
  2
_OPEN30
 10
-140.0
 20
26.0
 30
0.0
 41
2.77
 42
2.77
 43
2.77
 50
180.0
  0
TEXT
  5
7B2
100
AcDbEntity
  8
GV
  6
CONTINUOUS
 62
     7
100
AcDbText
 10
-123.323864
 20
27.0
 30
0.0
 40
2.5
  1
200
 41
1.022727
  7
MX_DIMTXSTY_3
 11
-123.323864
 21
28.25
 31
0.0
100
AcDbText
 73
     2
  0
LINE
  5
7B3
100
AcDbEntity
  8
GV
  6
CONTINUOUS
 62
     7
100
AcDbLine
 10
-92.0
 20
78.8
 30
0.0
 11
-92.0
 21
41.2
 31
0.0
  0
LINE
  5
7B4
100
AcDbEntity
  8
GV
  6
CONTINUOUS
 62
     7
100
AcDbLine
 10
-119.0
 20
78.8
 30
0.0
 11
-89.72
 21
78.8
 31
0.0
  0
LINE
  5
7B5
100
AcDbEntity
  8
GV
  6
CONTINUOUS
 62
     7
100
AcDbLine
 10
-119.0
 20
41.2
 30
0.0
 11
-89.72
 21
41.2
 31
0.0
  0
INSERT
  5
7B6
100
AcDbEntity
  8
GV
  6
CONTINUOUS
 62
     7
100
AcDbBlockReference
  2
_OPEN30
 10
-92.0
 20
78.8
 30
0.0
 41
2.77
 42
2.77
 43
2.77
 50
90.0
  0
INSERT
  5
7B7
100
AcDbEntity
  8
GV
  6
CONTINUOUS
 62
     7
100
AcDbBlockReference
  2
_OPEN30
 10
-92.0
 20
41.2
 30
0.0
 41
2.77
 42
2.77
 43
2.77
 50
270.0
  0
TEXT
  5
7B8
100
AcDbEntity
  8
GV
  6
CONTINUOUS
 62
     7
100
AcDbText
 10
-93.0
 20
56.676137
 30
0.0
 40
2.5
  1
188
 50
90.0
 41
1.022727
  7
MX_DIMTXSTY_3
 11
-94.25
 21
56.676137
 31
0.0
100
AcDbText
 73
     2
  0
LINE
  5
7B9
100
AcDbEntity
  8
GV
  6
CONTINUOUS
 62
     7
100
AcDbLine
 10
-86.0
 20
80.0
 30
0.0
 11
-86.0
 21
40.0
 31
0.0
  0
LINE
  5
7BA
100
AcDbEntity
  8
GV
  6
CONTINUOUS
 62
     7
100
AcDbLine
 10
-99.0
 20
80.0
 30
0.0
 11
-83.72
 21
80.0
 31
0.0
  0
LINE
  5
7BB
100
AcDbEntity
  8
GV
  6
CONTINUOUS
 62
     7
100
AcDbLine
 10
-99.0
 20
40.0
 30
0.0
 11
-83.72
 21
40.0
 31
0.0
  0
INSERT
  5
7BC
100
AcDbEntity
  8
GV
  6
CONTINUOUS
 62
     7
100
AcDbBlockReference
  2
_OPEN30
 10
-86.0
 20
80.0
 30
0.0
 41
2.77
 42
2.77
 43
2.77
 50
90.0
  0
INSERT
  5
7BD
100
AcDbEntity
  8
GV
  6
CONTINUOUS
 62
     7
100
AcDbBlockReference
  2
_OPEN30
 10
-86.0
 20
40.0
 30
0.0
 41
2.77
 42
2.77
 43
2.77
 50
270.0
  0
TEXT
  5
7BE
100
AcDbEntity
  8
GV
  6
CONTINUOUS
 62
     7
100
AcDbText
 10
-87.0
 20
56.676136
 30
0.0
 40
2.5
  1
200
 50
90.0
 41
1.022727
  7
MX_DIMTXSTY_3
 11
-88.25
 21
56.676136
 31
0.0
100
AcDbText
 73
     2
  0
CIRCLE
  5
7BF
100
AcDbEntity
  8
GV
  6
CONTINUOUS
 62
     7
100
AcDbCircle
 10
-120.0
 20
41.2
 30
0.0
 40
1.03
  0
CIRCLE
  5
7C0
100
AcDbEntity
  8
GV
  6
CONTINUOUS
 62
     7
100
AcDbCircle
 10
-120.0
 20
41.2
 30
0.0
 40
1.2
  0
CIRCLE
  5
7C1
100
AcDbEntity
  8
GV
  6
CONTINUOUS
 62
     7
100
AcDbCircle
 10
-120.0
 20
78.8
 30
0.0
 40
1.03
  0
CIRCLE
  5
7C2
100
AcDbEntity
  8
GV
  6
CONTINUOUS
 62
     7
100
AcDbCircle
 10
-120.0
 20
78.8
 30
0.0
 40
1.2
  0
POLYLINE
  5
7C3
100
AcDbEntity
  8
GV
  6
CONTINUOUS
 62
     7
100
AcDb2dPolyline
 66
     1
 10
0.0
 20
0.0
 30
0.0
 70
     1
 40
0.1
 41
0.1
  0
VERTEX
  5
7C4
100
AcDbEntity
  8
GV
  6
CONTINUOUS
 62
     7
100
AcDbVertex
100
AcDb2dVertex
 10
-100.05
 20
80.0
 30
0.0
 42
1.0
  0
VERTEX
  5
7C5
100
AcDbEntity
  8
GV
  6
CONTINUOUS
 62
     7
100
AcDbVertex
100
AcDb2dVertex
 10
-99.95
 20
80.0
 30
0.0
 42
1.0
  0
SEQEND
  5
7C6
100
AcDbEntity
  8
GV
  6
CONTINUOUS
 62
     7
  0
POLYLINE
  5
7C7
100
AcDbEntity
  8
GV
  6
CONTINUOUS
 62
     7
100
AcDb2dPolyline
 66
     1
 10
0.0
 20
0.0
 30
0.0
 70
     1
 40
0.1
 41
0.1
  0
VERTEX
  5
7C8
100
AcDbEntity
  8
GV
  6
CONTINUOUS
 62
     7
100
AcDbVertex
100
AcDb2dVertex
 10
-140.05
 20
40.0
 30
0.0
 42
1.0
  0
VERTEX
  5
7C9
100
AcDbEntity
  8
GV
  6
CONTINUOUS
 62
     7
100
AcDbVertex
100
AcDb2dVertex
 10
-139.95
 20
40.0
 30
0.0
 42
1.0
  0
SEQEND
  5
7CA
100
AcDbEntity
  8
GV
  6
CONTINUOUS
 62
     7
  0
LINE
  5
7CB
100
AcDbEntity
  8
GV
  6
CONTINUOUS
 62
     7
100
AcDbLine
 10
-140.0
 20
40.0
 30
0.0
 11
-140.0
 21
80.0
 31
0.0
  0
LINE
  5
7CC
100
AcDbEntity
  8
GV
  6
CONTINUOUS
 62
     7
100
AcDbLine
 10
-100.0
 20
40.0
 30
0.0
 11
-140.0
 21
40.0
 31
0.0
  0
LINE
  5
7CD
100
AcDbEntity
  8
GV
  6
CONTINUOUS
 62
     7
100
AcDbLine
 10
-100.0
 20
80.0
 30
0.0
 11
-100.0
 21
40.0
 31
0.0
  0
LINE
  5
7CE
100
AcDbEntity
  8
GV
  6
CONTINUOUS
 62
     7
100
AcDbLine
 10
-140.0
 20
80.0
 30
0.0
 11
-100.0
 21
80.0
 31
0.0
  0
CIRCLE
  5
7CF
100
AcDbEntity
  8
TV
  6
CONTINUOUS
 62
     7
100
AcDbCircle
 10
55.0
 20
80.0
 30
0.0
 40
0.05
  0
CIRCLE
  5
7D0
100
AcDbEntity
  8
TV
  6
CONTINUOUS
 62
     7
100
AcDbCircle
 10
15.0
 20
40.0
 30
0.0
 40
0.05
  0
LINE
  5
7D1
100
AcDbEntity
  8
TV
  6
CONTINUOUS
 62
     7
100
AcDbLine
 10
52.5
 20
32.0
 30
0.0
 11
17.5
 21
32.0
 31
0.0
  0
LINE
  5
7D2
100
AcDbEntity
  8
TV
  6
CONTINUOUS
 62
     7
100
AcDbLine
 10
52.5
 20
42.5
 30
0.0
 11
52.5
 21
29.72
 31
0.0
  0
LINE
  5
7D3
100
AcDbEntity
  8
TV
  6
CONTINUOUS
 62
     7
100
AcDbLine
 10
17.5
 20
75.5
 30
0.0
 11
17.5
 21
29.72
 31
0.0
  0
INSERT
  5
7D4
100
AcDbEntity
  8
TV
  6
CONTINUOUS
 62
     7
100
AcDbBlockReference
  2
_OPEN30
 10
52.5
 20
32.0
 30
0.0
 41
2.77
 42
2.77
 43
2.77
  0
INSERT
  5
7D5
100
AcDbEntity
  8
TV
  6
CONTINUOUS
 62
     7
100
AcDbBlockReference
  2
_OPEN30
 10
17.5
 20
32.0
 30
0.0
 41
2.77
 42
2.77
 43
2.77
 50
180.0
  0
TEXT
  5
7D6
100
AcDbEntity
  8
TV
  6
CONTINUOUS
 62
     7
100
AcDbText
 10
31.676136
 20
33.0
 30
0.0
 40
2.5
  1
175
 41
1.022727
  7
MX_DIMTXSTY_3
 11
31.676136
 21
34.25
 31
0.0
100
AcDbText
 73
     2
  0
LINE
  5
7D7
100
AcDbEntity
  8
TV
  6
CONTINUOUS
 62
     7
100
AcDbLine
 10
63.0
 20
76.5
 30
0.0
 11
63.0
 21
43.5
 31
0.0
  0
LINE
  5
7D8
100
AcDbEntity
  8
TV
  6
CONTINUOUS
 62
     7
100
AcDbLine
 10
18.5
 20
76.5
 30
0.0
 11
65.28
 21
76.5
 31
0.0
  0
LINE
  5
7D9
100
AcDbEntity
  8
TV
  6
CONTINUOUS
 62
     7
100
AcDbLine
 10
53.5
 20
43.5
 30
0.0
 11
65.28
 21
43.5
 31
0.0
  0
INSERT
  5
7DA
100
AcDbEntity
  8
TV
  6
CONTINUOUS
 62
     7
100
AcDbBlockReference
  2
_OPEN30
 10
63.0
 20
76.5
 30
0.0
 41
2.77
 42
2.77
 43
2.77
 50
90.0
  0
INSERT
  5
7DB
100
AcDbEntity
  8
TV
  6
CONTINUOUS
 62
     7
100
AcDbBlockReference
  2
_OPEN30
 10
63.0
 20
43.5
 30
0.0
 41
2.77
 42
2.77
 43
2.77
 50
270.0
  0
TEXT
  5
7DC
100
AcDbEntity
  8
TV
  6
CONTINUOUS
 62
     7
100
AcDbText
 10
62.0
 20
56.676136
 30
0.0
 40
2.5
  1
165
 50
90.0
 41
1.022727
  7
MX_DIMTXSTY_3
 11
60.75
 21
56.676136
 31
0.0
100
AcDbText
 73
     2
  0
CIRCLE
  5
7DD
100
AcDbEntity
  8
TV
  6
CONTINUOUS
 62
     7
100
AcDbCircle
 10
52.5
 20
43.5
 30
0.0
 40
0.55
  0
CIRCLE
  5
7DE
100
AcDbEntity
  8
TV
  6
CONTINUOUS
 62
     7
100
AcDbCircle
 10
17.5
 20
76.5
 30
0.0
 40
0.55
  0
TEXT
  5
7DF
100
AcDbEntity
  8
TV
  6
CONTINUOUS
 62
     7
100
AcDbText
 10
73.5
 20
52.574744
 30
0.0
 40
3.0
  1
(Plate size)
 50
90.0
 41
0.573379
 11
72.0
 21
52.574744
 31
0.0
100
AcDbText
 73
     2
  0
LINE
  5
7E0
100
AcDbEntity
  8
TV
  6
CONTINUOUS
 62
     7
100
AcDbLine
 10
69.0
 20
78.0
 30
0.0
 11
69.0
 21
42.0
 31
0.0
  0
LINE
  5
7E1
100
AcDbEntity
  8
TV
  6
CONTINUOUS
 62
     7
100
AcDbLine
 10
55.0
 20
78.0
 30
0.0
 11
71.28
 21
78.0
 31
0.0
  0
LINE
  5
7E2
100
AcDbEntity
  8
TV
  6
CONTINUOUS
 62
     7
100
AcDbLine
 10
55.0
 20
42.0
 30
0.0
 11
71.28
 21
42.0
 31
0.0
  0
INSERT
  5
7E3
100
AcDbEntity
  8
TV
  6
CONTINUOUS
 62
     7
100
AcDbBlockReference
  2
_OPEN30
 10
69.0
 20
78.0
 30
0.0
 41
2.77
 42
2.77
 43
2.77
 50
90.0
  0
INSERT
  5
7E4
100
AcDbEntity
  8
TV
  6
CONTINUOUS
 62
     7
100
AcDbBlockReference
  2
_OPEN30
 10
69.0
 20
42.0
 30
0.0
 41
2.77
 42
2.77
 43
2.77
 50
270.0
  0
TEXT
  5
7E5
100
AcDbEntity
  8
TV
  6
CONTINUOUS
 62
     7
100
AcDbText
 10
68.0
 20
56.666667
 30
0.0
 40
2.5
  1
180
 50
90.0
  7
MX_DIMTXSTY_2
 11
66.75
 21
56.666667
 31
0.0
100
AcDbText
 73
     2
  0
TEXT
  5
7E6
100
AcDbEntity
  8
TV
  6
CONTINUOUS
 62
     7
100
AcDbText
 10
27.574744
 20
18.5
 30
0.0
 40
3.0
  1
(Plate size)
 41
0.573379
 11
27.574744
 21
20.0
 31
0.0
100
AcDbText
 73
     2
  0
LINE
  5
7E7
100
AcDbEntity
  8
TV
  6
CONTINUOUS
 62
     7
100
AcDbLine
 10
54.0
 20
23.0
 30
0.0
 11
16.0
 21
23.0
 31
0.0
  0
LINE
  5
7E8
100
AcDbEntity
  8
TV
  6
CONTINUOUS
 62
     7
100
AcDbLine
 10
54.0
 20
41.0
 30
0.0
 11
54.0
 21
20.72
 31
0.0
  0
LINE
  5
7E9
100
AcDbEntity
  8
TV
  6
CONTINUOUS
 62
     7
100
AcDbLine
 10
16.0
 20
41.0
 30
0.0
 11
16.0
 21
20.72
 31
0.0
  0
INSERT
  5
7EA
100
AcDbEntity
  8
TV
  6
CONTINUOUS
 62
     7
100
AcDbBlockReference
  2
_OPEN30
 10
54.0
 20
23.0
 30
0.0
 41
2.77
 42
2.77
 43
2.77
  0
INSERT
  5
7EB
100
AcDbEntity
  8
TV
  6
CONTINUOUS
 62
     7
100
AcDbBlockReference
  2
_OPEN30
 10
16.0
 20
23.0
 30
0.0
 41
2.77
 42
2.77
 43
2.77
 50
180.0
  0
TEXT
  5
7EC
100
AcDbEntity
  8
TV
  6
CONTINUOUS
 62
     7
100
AcDbText
 10
31.666667
 20
24.0
 30
0.0
 40
2.5
  1
190
  7
MX_DIMTXSTY_2
 11
31.666667
 21
25.25
 31
0.0
100
AcDbText
 73
     2
  0
LINE
  5
7ED
100
AcDbEntity
  8
TV
  6
CONTINUOUS
 62
     7
100
AcDbLine
 10
16.0
 20
42.0
 30
0.0
 11
16.0
 21
78.0
 31
0.0
  0
LINE
  5
7EE
100
AcDbEntity
  8
TV
  6
CONTINUOUS
 62
     7
100
AcDbLine
 10
54.0
 20
42.0
 30
0.0
 11
16.0
 21
42.0
 31
0.0
  0
LINE
  5
7EF
100
AcDbEntity
  8
TV
  6
CONTINUOUS
 62
     7
100
AcDbLine
 10
54.0
 20
78.0
 30
0.0
 11
54.0
 21
42.0
 31
0.0
  0
LINE
  5
7F0
100
AcDbEntity
  8
TV
  6
CONTINUOUS
 62
     7
100
AcDbLine
 10
16.0
 20
78.0
 30
0.0
 11
54.0
 21
78.0
 31
0.0
  0
LINE
  5
7F1
100
AcDbEntity
  8
TV
  6
CONTINUOUS
 62
     7
100
AcDbLine
 10
55.0
 20
41.4
 30
0.0
 11
35.979796
 21
41.4
 31
0.0
  0
LINE
  5
7F2
100
AcDbEntity
  8
TV
  6
CONTINUOUS
 62
     7
100
AcDbLine
 10
15.0
 20
41.4
 30
0.0
 11
34.020204
 21
41.4
 31
0.0
  0
ARC
  5
7F3
100
AcDbEntity
  8
TV
  6
CONTINUOUS
 62
     7
100
AcDbCircle
 10
35.0
 20
41.2
 30
0.0
 40
1.0
100
AcDbArc
 50
11.536959
 51
168.463041
  0
CIRCLE
  5
7F4
100
AcDbEntity
  8
TV
  6
CONTINUOUS
 62
     7
100
AcDbCircle
 10
35.0
 20
41.2
 30
0.0
 40
0.5
  0
LINE
  5
7F5
100
AcDbEntity
  8
TV
  6
CONTINUOUS
 62
     7
100
AcDbLine
 10
55.0
 20
78.6
 30
0.0
 11
35.979796
 21
78.6
 31
0.0
  0
LINE
  5
7F6
100
AcDbEntity
  8
TV
  6
CONTINUOUS
 62
     7
100
AcDbLine
 10
15.0
 20
78.6
 30
0.0
 11
34.020204
 21
78.6
 31
0.0
  0
ARC
  5
7F7
100
AcDbEntity
  8
TV
  6
CONTINUOUS
 62
     7
100
AcDbCircle
 10
35.0
 20
78.8
 30
0.0
 40
1.0
100
AcDbArc
 50
191.536959
 51
348.463041
  0
CIRCLE
  5
7F8
100
AcDbEntity
  8
TV
  6
CONTINUOUS
 62
     7
100
AcDbCircle
 10
35.0
 20
78.8
 30
0.0
 40
0.5
  0
LINE
  5
7F9
100
AcDbEntity
  8
TV
  6
CONTINUOUS
 62
     7
100
AcDbLine
 10
54.76
 20
80.0
 30
0.0
 11
54.76
 21
40.0
 31
0.0
  0
LINE
  5
7FA
100
AcDbEntity
  8
TV
  6
CONTINUOUS
 62
     7
100
AcDbLine
 10
15.24
 20
80.0
 30
0.0
 11
15.24
 21
40.0
 31
0.0
  0
LINE
  5
7FB
100
AcDbEntity
  8
TV
  6
CONTINUOUS
 62
     7
100
AcDbLine
 10
15.0
 20
40.0
 30
0.0
 11
15.0
 21
80.0
 31
0.0
  0
LINE
  5
7FC
100
AcDbEntity
  8
TV
  6
CONTINUOUS
 62
     7
100
AcDbLine
 10
55.0
 20
40.0
 30
0.0
 11
15.0
 21
40.0
 31
0.0
  0
LINE
  5
7FD
100
AcDbEntity
  8
TV
  6
CONTINUOUS
 62
     7
100
AcDbLine
 10
55.0
 20
80.0
 30
0.0
 11
55.0
 21
40.0
 31
0.0
  0
LINE
  5
7FE
100
AcDbEntity
  8
TV
  6
CONTINUOUS
 62
     7
100
AcDbLine
 10
15.0
 20
80.0
 30
0.0
 11
55.0
 21
80.0
 31
0.0
  0
ENDSEC
  0
SECTION
  2
OBJECTS
  0
DICTIONARY
  5
19
100
AcDbDictionary
  3
ACAD_GROUP
350
1A
  3
ACAD_MLINESTYLE
350
1B
  0
DICTIONARY
  5
1A
102
{ACAD_REACTORS
330
19
102
}
100
AcDbDictionary
  0
DICTIONARY
  5
1B
102
{ACAD_REACTORS
330
19
102
}
100
AcDbDictionary
  3
STANDARD
350
1C
  0
MLINESTYLE
  5
1C
102
{ACAD_REACTORS
330
1B
102
}
100
AcDbMlineStyle
  2
Standard
 70
     0
  3

 62
     0
 51
90.0
 52
90.0
 71
     2
 49
0.5
 62
   256
  6
ByLayer
 49
-0.5
 62
   256
  6
ByLayer
  0
ENDSEC
  0
EOF
